Sublime - Santeria Chords & Tabs

 

Santeria Chords & Tabs

Sublime Chords & Tabs

Version: 11 Type: Tab 0 ratings
1 star 2 stars 3 stars 4 stars 5 stars
comments

Santeria Tab

   
-------------------------------------------------------------------------------
			     Santeria Solo - Sublime
-------------------------------------------------------------------------------

Tabbed by: turtleman983
Email: turtleman983@yahoo.com
Tuning: regular
  
e|---------------------------------------------------------------------------|
B|---------------------------------------------------------------------------|
G|--------------9-11-11-9-88\6-8-6-6p4---4---------------------------4h5h6--|
D|---------9-11-------------------------6---2-4p2---------------4h5h6--------|
A|--7-9/11----------------------------------------4-------2h3h4--------------|
E|--------------------------------------------------2h3h4--------------------|
[ Tab from: http://www.guitartabs.cc/tabs/s/sublime/santeria_tab_ver_11.html ]
e|---------9-----------------------------------------------------9-----------|
B|-5-5--12---12-----------------------------------------------11---9---11----|
G|--------------9-11-9----9-----------------------------------11-----9-11----|
D|---------------------11---11p9---------9----------10----10-----------------|
A|-------------------------------11-9h11---9-7-9/11----11--------------------|
E|---------------------------------------------------------------------------|

e|-9-------------------------------------------------------------------------|
B|---9-----------------------------------------------------------------------|
G|-----9-11-11p9----9----11----9---------------------------------------------|
D|---------------11---11----11-----------------------------------------------|
A|---------------------------------------------------------------------------|
E|---------------------------------------------------------------------------|


| /  slide up
| \  slide down
| h  hammer-on
| p  pull-off
Comments