Sublime - Santeria Chords & Tabs

 

Santeria Chords & Tabs

Sublime Chords & Tabs

Version: 10 Type: Tab 0 ratings
1 star 2 stars 3 stars 4 stars 5 stars
comments

Santeria Tab

   
Santeria

This is the perfect version! I've seen too many
crappy versions of this song! The chorus riff
is especially commonly mistabbed. Check out
my bass tab for this song too. It's gonna be
pretty kick ass.

KEY:
h = hammer
p = pulloff
/ = slide
c = choke/bend 1/4 step
cr= choke
b = bend half step
br= bend half step release
^ = bend full step
^ = bend full step release
v = vibrato

Intro Riff

-----------|-------------|-------------|-------
-----------|-------------|------4------|-------
-----9-----|------9------|---------5---|-------
---9----9--|----9---9-9--|-----------6-|-------
7---------7|-7----------7|----6--------|-------
-----------|-------------|-4-----------|-------

-----------|---------------|-----------|-------
-----------|-------------5-|---6-------|-------
-----5-----|------6--4h6---|------6----|-------
---6-------|----6----------|---------7-|-------
6--------4-|-4-------------|-----------|-------
-----------|---------------|-----------|-------

-----------|-----------------------------------
----7------|-----------------------------------
-------8---|-drum-and-bass---------------------
---------9-|-----------------------------------
-----------|-----------------------------------
7----------|-----------------------------------

Verse Riff (Typical ska style, pick on upstrokes)
[ Tab from: http://www.guitartabs.cc/tabs/s/sublime/santeria_tab_ver_10.html ]
4-4-4-4-|4-4-4-4-|-4-4-4-4-|-------------------
5-5-5-5-|4-4-4-4-|-5-5-5-5-|-------------------
4-4-4-4-|4-4-4-4-|-6-6-6-6-|-------------------
--------|--------|---------|-------------------
--------|--------|---------|-------------------
--------|--------|---------|-------------------

Chorus Riff (I'm not sure, but Brad might of
doubled his guitar with the verse riff in the
backround)
            
5------7------|-----------------4-----|--------
--5------7----|-9-9---7-7---5-----5---|--------
----6------8--|-----9-----8---6-----7-|--------
--------------|-9-----8-----6---------|--------
--------------|-----------------------|--------
--------------|-----------------------|--------

Solo

-----------------------------------------------
-----------------------------------------------
--------------9-11b-9-8--8/6--8br--6p4p0-6-----
-----------9-11----------------------------4b--
5h7-7-9h11-------------------------------------
-----------------------------------------------

-----------------------------------------------
-----------------------------------------------
-------------------------------------9-11------
2h4p2---2--------------------9-11-13-----------
------4---4------7h9p7-7h9/11------------------
-------------7h9-------------------------------

------9----------------------------------------
12^-----12-9-----------------------------------
-------------11^-11p9----9---------------------
----------------------11---11-9---------10---10
---------------------------------11--11----11--
-----------------------------------------------

----9----------9-------------------------------
12^---9---12^----9-----------12-----------------
11^-----9-11^------9-11^r-----------------------
-----------------------------------------------
-----------------------------------------------
-----------------------------------------------
Comments