Sublime - Santeria Chords & Tabs

 

Santeria Chords & Tabs

Sublime Chords & Tabs

Version: 1 Type: Tab 1 rating
1 star 2 stars 3 stars 4 stars 5 stars
comments

Santeria Tab

#----------------------------------PLEASE NOTE--------------------------------#
#This file is the author's own work and represents their interpretation of the#
#song. You may only use this file for private study, scholarship, or research.#
#-----------------------------------------------------------------------------#
#-- File created with Instab - http://www.pconline.com/~smcarey/instab.html --#
#-----------------------------------------------------------------------------#

Author/Artist: Sublime
Title: Santeria
Album: Sublime
Transcribed by: Le Psychopathe
Email: pingouinus@hotmail.com

Really great song !!
During the verses , play the ska rythhm : upstrike the chords
the solo may not be perfect , but i made it as good as possible

Enjoy

----------|------------------------------------------|----------------------|-
----------|------------------------------------------|----------------------|-
----------|---------------------9------------9-------|-----5----------------|-
----------|-------------------9-----9------9---9-----|-------6--------6-----|-
----------|---------------7-----------7--7-------9---|---6-----6--------6---|-
----------|----------------------------------------7\|-4----------4---------|-
  INTRO :                                                                     

-----------------------|------------------------|-----------------------------
-----------5-----------|----------7-------------|-----------------------------
-----6-------6---6-----|----8--------9---9------|-----------------------------
---6---6-------6---6---|------9--------9----9---|-----------------------------
-4-------4-----------4-|--9-----9-------------9-|-----------------------------
-----------------------|7-----------------------|-----------------------------
                                                                              

--------|-------7---------7---------7---------7---|----4-----4-----4-----4----
--------|-------9---------9---------9---------9---|----4-----4-----4-----4----
--------|-------9---------9---------9---------9---|----5-----5-----5-----5----
--------|-------9---------9---------9---------9---|----6-----6-----6-----6----
--------|-----------------------------------------|---------------------------
--------|-----------------------------------------|---------------------------
 VERSE :   I don't practice Santeria         I aint got no crystal ball       
[ Tab from: http://www.guitartabs.cc/tabs/s/sublime/santeria_tab.html ]
----|----4-----4-----4-----4----|----7----7----7----7-------------------------
----|----5-----5-----5-----5----|----7----7----7----7-------------------------
----|----6-----6-----6-----6----|----8----8----8----8-------------------------
----|----6-----6-----6-----6----|----9----9----9----9-------------------------
----|---------------------------|---------------------------------------------
----|---------------------------|---------------------------------------------
      if i had a million dollar but i spent it all ...                        

-----------||-------5----------/7----------|-------------------------------||-
-----------||---------5-----------7--------|----9--------7------5----------||-
-----------||0-----------6----------8------|------9--------8------6-------0||-
-----------||0-----------------------------|--------9---------------6-----0||-
-----------||------------------------------|----7--------6-----\4----------||-
-----------||-------5----------/7----------|-------------------------------||-
 CHORUS :        and i  really  wanna know     ...                            

--------|------------------------------------|------------------------------|-
--------|------------------------------------|------------------------------|-
--------|---------------9--11br-9-8--8-6-8br-|-6--6h4---4-------------------|-
--------|----------9h11----------------------|--------6-----6\4-2-4p2---2---|-
--------|-7---9/11---------------------------|------------------------4---4-|-
--------|------------------------------------|------------------------------|-
 SOLO :                                                                       

---------------------------|--------------------------------------------|-----
-----------------------5-5-|--12b--12br9--------------------------------|-----
-------------------4h6-----|-------------11br9--11-9h11h9---------------|-----
-------------2h4/6---------|------------------------------11------9-----|-----
-------2h3h4---------------|---------------------------------9h11-------|-----
-2h3h4---------------------|-----------------------------------------12-|-----
                                                                              

--------------------------9-------------9----------------------------|--------
--------------------9-------9-----9-------9--------------------------|--------
--------------------11b-------9---11b-------9---11brv---11br9-11-9v--|--------
------10----10-------------------------------------------------------|--------
--/11----11----------------------------------------------------------|--------
---------------------------------------------------------------------|--------
                                                                              

--------|-----------------------------------------0------|--------------------
--------|--9-----7-----5-----4-----2--------------3------|--------------------
--------|--9-----8-----6-----4-----2-----4--------1------|--------------------
--------|--9-----8-----6-----4-----2-----4--------2------|--------------------
--------|--7-----6-----4-----2-----0-----2--------2------|--------------------
--------|-----------------------------------------0------|--------------------
 END :                                                                        

Comments