Sublime - Santeria Solo Chords & Tabs

 

Santeria Solo Chords & Tabs

Sublime Chords & Tabs

Version: 2 Type: Tab 1 rating
1 star 2 stars 3 stars 4 stars 5 stars
comments

Santeria Solo Tab

#----------------------------------PLEASE NOTE--------------------------------#
#This file is the author's own work and represents their interpretation of the#
#song. You may only use this file for private study, scholarship, or research.#
#-----------------------------------------------------------------------------#
#-- File created with Instab - http://www.pconline.com/~smcarey/instab.html --#
#-----------------------------------------------------------------------------#

Author/Artist: Sublime
Title: Santeria (solo)
Album: Sublime
Transcribed by: Chris Wilkinson
Email: digitaldawg123@excite.com

I've seen this solo tabbed incorrectly on so many sites, I just had to do something.
This is the correct way to play the 'Santeria' solo.
[ Tab from: http://www.guitartabs.cc/tabs/s/sublime/santeria_solo_tab_ver_2.html ]
------------------------------------------------------------------------------
------------------------------------------------------------------------------
-------------9-11b12r11-11-9-8v-8\6-8b9r8v-6-6p4---4--------------------------
--------9-11-------------------------------------6---4-2h4p2---2--------------
-7-9/11------------------------------------------------------4---4v-----------
--------------------------------------------------------------------2h3h4-----
                                                                              

-----------------------9------------------------------------------------------
-----------------5-12b---12p9-------------------------------------------------
-------------4h6--------------11b-9----9--------------------------------------
-------4h5h6------------------------11---11-9---------9-------------10----10--
-2h3h4----------------------------------------11-9h11---11\9-7-9/11----11-11--
------------------------------------------------------------------------------
                                                                              

-----9---------9--------------------------------------------------------------
-11b---9---11b---9---11b------------------------------------------------------
-11b-----9-11b-----9-11b------------------------------------------------------
------------------------------------------------------------------------------
------------------------------------------------------------------------------
------------------------------------------------------------------------------
                         There you have it.  That's it for the solo.          

Comments