Sublime - Santeria Chords & Tabs

 

Santeria Chords & Tabs

Sublime Chords & Tabs

Version: 5 Type: Bass Tab 0 ratings
1 star 2 stars 3 stars 4 stars 5 stars
comments

Santeria Bass Tab

----------------------------------PLEASE NOTE---------------------------------
This file is the author's own work and represents their interpretation of the 
song. You may only use this file for private study, scholarship, or research. 
------------------------------------------------------------------------------
Artist: Sublime
Song: Santeria
Album: Sublime

Intro:
G|-----------------------8--------------|
D|---------6----------------------------|
A|--7-------------4----------------7h9--|
E|-----------------------7------7h9-----|

Verse 1:
G|-------------------------------------------|
D|---------------7h9-7h9---6--6---6-6--06-6--|
A|--7--7---7-7-----------------6h8-----------|
E|------7h9----------------------------------|

G|---------------------------------------|
D|---------------------------------------|
A|--4--44-4-4--4-4------------------7h9--|
E|-------------------7--07-7-7--07h9-----|

G|---------------------------------------------|
D|---------------7h9-7h9---6--6----------------|
A|--7--7---7-7-----------------6-6--------4h6--|
E|------7h9------------------------4--04h6-----|

G|-------------------------------------|
D|-------------------------------------|
A|--4--4---4-4---047------------------|
E|------4h6-----------7--07-7-7-7-7-7--|

Chorus 1:
G|--------------------------------|
D|--------------------------------|
A|----7-7-----9-9---7-76-6--4-----|
E|--5------07--------------4-4-4--|

G|----------------------------------|
D|---------------------------6-6-6--|
A|----7-7-----9-9---7-76-6-4--------|
E|--5------07-----------------------|
[ Tab from: http://www.guitartabs.cc/tabs/s/sublime/santeria_btab_ver_5.html ]
G|--------------------------------|
D|--------------------------------|
A|----7-7-----9-9---7-76-6--4-----|
E|--5------07--------------4-4-4--|

G|-----------------|
D|-----------------|
A|----7-7-----9-9--|
E|--5------07------|

Verse 2:
G|--------------------------------------------|
D|---------------7h9-7h9---6--6---6-6--6---6--|
A|--7--7---7-7-----------------6h8------6h8---|
E|------7h9-----------------------------------|

G|---------------------------------------|
D|------66------66-----------------------|
A|--4--4----4--4---------99---------7h9--|
E|--------4-------4--7--7--7-7--07h9-----|

G|--------------------------------------------|
D|---------------7h9-7h9---6--6---6-6--6---6--|
A|--7--7---7-7-----------------6h8------6h8---|
E|------7h9-----------------------------------|

G|------------------------------------|
D|------66------66---9--09-9-9-9-9-9--|
A|--4--4----4--4----------------------|
E|--------4-------4-------------------|

Chorus 1

Verse 2

Chorus 1

Verse 2

Chorus 2:
G|--------------------------------|
D|--------------------------------|
A|----7-7-----9-9---7-76-6--4-----|
E|--5------07--------------4-4-4--|

G|----------------------------------|
D|---------------------------6-6-6--|
A|----7-7-----9-9---7-76-6-4--------|
E|--5------07-----------------------|

G|--------------------------------|
D|--------------------------------|
A|----7-7-----9-9---7-76-6--4-----|
E|--5------07--------------4-4-4--|

Outro:
G|--------------------------------|
D|--------------------------------|
A|--7---6---4---------------------|
E|--------------7----5----7----0--|
Comments