Sublime - Santeria Chords & Tabs

 

Santeria Chords & Tabs

Sublime Chords & Tabs

Version: 3 Type: Bass Tab 0 ratings
1 star 2 stars 3 stars 4 stars 5 stars
comments

Santeria Bass Tab

Santeria
Intro (Whole notes)
G---------------
D---------------
A---------------
E-12-11-9-7-----
[ Tab from: http://www.guitartabs.cc/tabs/s/sublime/santeria_btab_ver_3.html ]
Verse
G-----------------------------------------------------
D--------------7/9-9-6-6-----6-6----------------------  Repeat 2x
A--7-7------7------------6/9--------------------7h9p7-
E------7/10----------------------9-9-4/7-9-9-7--------
Chorus
G----------------------------------------------
D----------------------------------------------  3x and then 
A----------------------------------------------
E----5-5-5-5-5-7-7-7-7-7/12-9h11-7h9-9-9-9-9\-- 
(\ after nine only after third time)

Chorus back into verse
G-----------
D-----------
A-----------
E---5/9\7--

OUTRO
G---------------------
D---------------------
A--7------------------
E----11-9-7-12-12-----

SONG ORDER
Intro
Verse
Chorus
Chorus back into verse
verse
Chorus
chorus back into verse
verse (during guitar solo)
Chorus
Chorus back into verse
Verse
Chorus
Chorus back into verse
outro
Comments