Sublime - Santaria Chords & Tabs

 

Santaria Chords & Tabs

Sublime Chords & Tabs

Version: 1 Type: Tab 0 ratings
1 star 2 stars 3 stars 4 stars 5 stars
comments

Santaria Tab

   
Intro(0:00):
Guitar 1(clean elec. w/phase shifter)
  E                     G#                    C#m
E|---------------------|-------------------|----------------------------|
B|---------------------|--4----------------|----------------5-----------|
G|----9-------9--------|----5------5-(5)---|------6-(6)-4-----6---------|
D|--9---9---9---9-9----|------6------------|--6-6---------6-----6-6-6/7-|
A|7-------7-7-------7\-|---------6-------4-|--4---------------------6/7-|
E|---------------------|4------------------|----------------------------|

   B
E|-------------------|
B|---7---------------|
G|---8---8-----------|
D|-----9---9---------|
A|-9-----------------|
E|-7---------7-------|


/////////////////////////////////////////////////////////////////////////////////////
Verses(0:13,0:53,2:12):
Guitar 1(clean)
    E  G# C#m B          B        A
E|--x--4--4--7--|-----|--7--7--7--5-5-|
B|--9--4--5--7--|-----|--7--7--7--5-5-|(two tab spaces means
G|--9--5--6--8--|-x-2-|--8--8--8--6-6-| an eighth rest)
D|--9-----------|Then-|---------------|
A|-Stroke each--|After|---------------|
E|chord-4-times-|-C#m-|---------------|


/////////////////////////////////////////////////////////////////////////////////////
1st,2nd,and 4th Choruses(0:34,1:14.2:33):
Guitar 1(clean)
   A       B     E  B  C#m      A     B    E
E|(5)5--5--7--7--------4--4-4-|--5--5--7------|
B|(5)5--5--7--7--9--7--5--5-5-|--5--5--7--x-9-|(two tab spaces means
G|(6)6--6--8--8--9--8--6--6-6-|--6--6--8--x-9-| an eighth rest)
D|---------------9--9---------|-----------x-9-|
A|----------------------------|---------------|
E|----------------------------|---------------|

   E     B   C#m A    A        B      E  B  C#m A
E|------------4--5-5|(5)-5--5--7--7-|--------4--5-5-|
B|(9)-9--7-7--5--5-5|(5)-5--5--7--7-|--9--7--5--5-5-|
G|(9)-9--8-8--6--6-6|(6)-6--6--8--8-|--9--8--6--6-6-|
D|(9)-9--9-9--------|---------------|--9--9---------|
A|------------------|---------------|---------------|
E|------------------|---------------|---------------|

   A        B  E
E|(5)-5--5--7--------|
B|(5)-5--5--7--9-9-.-|
G|(6)-6--6--8--9-9---|
D|-------------9-9-.-|
A|-------------------|
E|-------------------|

/////////////////////////////////////////////////////////////////////////////////////
1st,2nd,and 4th Choruses(0:34,1:14.2:33):
Guitar 2(let ring throuhout)
   A       B               E      B      C#m           A
E|-5-------7-(7)---------|-----------------------------5-|
B|---5-----------7-----9-|(9)------------------5-(5)-----|
G|-----6/8---------8-----|----9/8----8/6-----6-------6---|
D|-------------------9---|-----------------6-------------|
A|-----------------------|--------6------4---------------|
E|-----------------------|-------------------------------|

   A           B         E          B      C#m           A
E|(5)-------7-(7)----------|-----------------------------5---|
B|----5-----------7------9-|(9)------------------5-(5)---5---|
G|------------------9--9---|----9/8----(8)---6---------6-----|
D|------7/9----------------|-------------------6-------------|
A|-------------------------|--------6------4-----------------|
E|-------------------------|---------------------------------|

   A           B             E    B     C#m           A
E|(5)-------7-(7)----------|--------------------------5--|
B|(5)-5-----------7--------|----9-------------5-(5)------|
G|------6/8--------------9-|(9)-----8/6-----6-------6----|
D|------------------9--x---|--------------6--------------|
A|-------------------------|------6-----4----------------|
E|-------------------------|-----------------------------|

   A              B     E
E|(5)-------7-(7)---------|
B|----5-----------7-------|
G|------------------8-----|
D|------7/9-----------7---|
A|------------------------|
E|------------------------|


/////////////////////////////////////////////////////////////////////////////////////
Guitar Solo(1:32):Guitar 1 plays the Verse chords.
                  The chords are written over the solo.
[ Tab from: http://www.guitartabs.cc/tabs/s/sublime/santaria_tab.html ]
Guitar Solo(1:32):Guitar 3
  E                        G
E|------------------------|-----------------------|
B|----------------fb------|-----------hb----------|
G|-------------9-11^(11)-9|-8~~~-8\6--8^-(8)~~~---|
D|--------9h11------------|-----------------------|
A|7--9/11-----------------|-----------------------|
E|------------------------|-----------------------|

  C#m
E|-------------------------------------|
B|-------------------------------------|
G|6-6h4---4--hb------------------------|
D|------6----4^(4)-2h4p2---2-----------|
A|-----------------------2---4-(4)~~~--|
E|-------------------------------------|

  B                               E
E|------------------------0---fb|----9-------------------------------------------|
B|----------------------5----12^|(12)--12-9--fb----------------------------------|
G|------------------4h6---------|-----------11^(11)h9----9-----------------------|
D|------------4h5h6-------------|---------------------11---11p9---------9--------|
A|------2h3h4-------------------|-------------------------------11-9h11---11/9---|
E|2h3h4-------------------------|----------------------------------------------7-|

  G#                         C#m                    B
E|----------------------hb-|-----9~------hb-9~-----|-hb------------------------|
B|---------------------11^-|(11)---9~---11^---9~---|11^(11)~~(11)--------------|
G|---------------------11^-|(11)-----9~-11^-----9~-|11^(11)~~(11)-11-(11)-9-11-|
D|-----10---(10)-10~~~-----|-----------------------|---------------------------|
A|9/11----11---------------|-----------------------|---------------------------|
E|-------------------------|-----------------------|---------------------------|


/////////////////////////////////////////////////////////////////////////////////////
3rd Chorus(1:54):Guitar 3
E|--------------------|
B|--------------------|(chorus starts after
G|--9~~~~-------------| he ends the solo)
D|--------------------|
A|--------------------|
E|--------------------|

3rd Chorus(1:54):Guitar 1 plays the rhythem
                 from the 1st,2nd,and 4th Choruses.

3rd Chorus(1:54):Guitar 2
  A            B            E      B     C#m
E|-5--------7-(7)---------|-------------------------------|
B|---5------------7-----9-|(9)----------4h5---------------|
G|------6/8---------8h9---|----9\8---8------6-------------|
D|------------------------|-------------------6-----------|
A|------------------------|--------6-------------4--------|
E|------------------------|-------------------------------|

   A          B             E      B     C#m          A
E|---------7-(7)----------|---------------------------5--|
B|---------------7-(7)--9-|(9)----------4h5--------------|
G|---6--------------------|----9\8---8------6------------|
D|-----7/9----------------|-------------------6----------|
A|-7----------------------|--------6-------------4-------|
E|------------------------|------------------------------|

   A           B             E      B      C#m         A
E|(5)-------7-(7)----------|---------------------------5--|
B|----5-----------7------9-|(9)-----------------5---------|
G|------6/8------------8---|----9\8---8------------6------|
D|------------------9------|------------------6-----------|
A|-------------------------|--------6---4-(4)-------------|
E|-------------------------|------------------------------|

   A           B
E|(5)-------7-(7)------------|
B|----5-----------7----------|
G|------6/8------------------|
D|--------------------9------|
A|------------------------7--|
E|---------------------------|


/////////////////////////////////////////////////////////////////////////////////////

Then Go Back To:
~Verse~
~Chorus~

/////////////////////////////////////////////////////////////////////////////////////
Outro(2:52):
Guitar 1      
   A         B          E  D#5 C#5 B      A   B  E7
                          |---Gradually-slower-|
E|(5)-5--5/--7---------|----------------|------------------|
B|(5)-5--5/--7---x-7---|9----------4----|--------0~~~~-----|
G|(6)-6--6/--8---x-8---|9--8\\\6\\\4----|-6///8--7~~~~-----|
D|---------------x-9---|9--8\\\6\\\4----|-7///9--6~~~~-----|
A|---------------------|7--6\\\4\\\2----|-7///9--7~~~~-----|
E|---------------------|----------------|-5///7------------|


Outro(2:52):
Guitar 2
   A         B          E  D#5 C#  B      A   B  E7
                          |---Gradually-slower-|
E|(5)-------7-(7)------|----------------|------------------|
B|----5-----------7----|9------6\\\4----|--------0~~~~-----|
G|------6/8---------8--|9--8\\\6\\\4----|--------7~~~~-----|
D|--------------------9|9--8\\\6\\\4----|-7///9--6~~~~-----|
A|---------------------|7--6\\\4\\\2----|-7///9--7~~~~-----|
E|---------------------|----------------|-5///7------------|


Thats basically it,so remember to rate,Enjoy!
Comments