Sublime - Same In The End Chords & Tabs

 

Same In The End Chords & Tabs

Sublime Chords & Tabs

Version: 5 Type: Tab 0 ratings
1 star 2 stars 3 stars 4 stars 5 stars
comments

Same In The End Tab

Sublime
"Same In The End"
Normal Tuning
^ = Slow Bend
[ Tab from: http://www.guitartabs.cc/tabs/s/sublime/same_in_the_end_tab_ver_5.html ]
|------------------------------------------------------------------|
|------------------------------------------------------------------|
|------------------------------------------------------------------|
|---------5-5-5-5---------7-7-7-5-3-3-3-3--------------------------|
|-3-3-3-3-3-3-3-3-7-7-7-7-5-5-5-3-1-1-1-1-3-3-3-3-7-7-7-7-77777777-|
|-1-1-1-1---------5-5-5-5-----------------1-1-1-1-5-5-5-5-55555555-| X2


|------------------------------------------------------------------|
|------------------------------------------------------------------|
|------------------------------------------------------------------|
|-0-3-5-0-3-5-3-5-3-0-3-5-3-5-3-0-3-5-7--7--5--3--2^--0------------|
|------------------------------------------------------------------|
|------------------------------------------------------------------|

Tabbed By:  Brian LaMarre - s3xyl3m0n
Comments