Sublime - Same In The End Chords & Tabs

 

Same In The End Chords & Tabs

Sublime Chords & Tabs

Version: 3 Type: Tab 0 ratings
1 star 2 stars 3 stars 4 stars 5 stars
comments

Same In The End Tab

   
#----------------------------------PLEASE NOTE--------------------------------#
#This file is the author's own work and represents their interpretation of the#
#song. You may only use this file for private study, scholarship, or research.#
#-----------------------------------------------------------------------------#

Date: Mon, 23 Mar 1998 19:50:50 -0600
From: Chuck Monney 
Subject: TAB: Same in the End by Sublime


"Same in the End"
  by: Sublime from their self titled CD


This is a very easy song to play and it sounds really great on an electric
or acoustic guitar.  The timing may not be perfect so listen to the CD and 
play along.  This is my first tab so I'm sorry for any mistakes and I hope 
you enjoy it.



---clean upstrokes on the upbeats---
   (#)=PLAY ON FIRST TIME THROUGH ONLY 
E-----------------------------------------
B--(3)-3---3---3---3---3---3---3---1/3-3--
G--(2)-2---2---2---2---2---2---2---0/2-2--  PLAY 8 TIMES AND HOLD LAST 
D-----------------------------------------     CHORD FOR HALF COUNT
A-----------------------------------------
E-----------------------------------------

[ Tab from: http://www.guitartabs.cc/tabs/s/sublime/same_in_the_end_tab_ver_3.html ]
---add distortion---
   (#)=PLAY ON SECOND TIME ONLY
E--------------------------------------------------------------------
B--------------------------------------------------------------------
G------------------5--5-5--555--2--2-2--222--7777--5--3-3--3-3--333--
D-(3)-3--3-3--333--5--5-5--555--2--2-2--222--7777--5--3-3--3-3--333--
A-(3)-3--3-3--333--3--3-3--333--0--0-0--000--5555--3--1-1--1-1--111--
E-(1)-1--1-1--111----------------------------------------------------



E-----------------------------------
B-----------------------------------
G---------------2--2-2--222--222---- PLAY TWICE 
D--3--3-3--333--2--2-2--222--222--5-
A--3--3-3--333--0--0-0--000--000--5-
E--1--1-1--111--------------------3-



---clean upstrokes on upbeats---
   (#)=only play on first time and skip on repeats
E----------------------------------
B--(3)(3)--3--1--1--6--6--3--333---
G--(2)(2)--2--0--0--5--5--2--222--- PLAY 4 TIMES
D----------------------------------
A----------------------------------
E----------------------------------




SOLO
E----------------------------------------------
B----------------------------------------------
G----------------------------------------------
D----3-5----3--5--3--5--3-----3--5--3--5--3----
A--5-----5-----------------5-----------------5-
E----------------------------------------------

E-------------------------------------
B-------------------------------------
G-------------------------------------
D-3--5--5/7------7--5--3--2--3/2------
A---------------------------------5~--
E-------------------------------------



Chuck Monney
Hook 'em!

Comments