Sublime - Same In The End Chords & Tabs

 

Same In The End Chords & Tabs

Sublime Chords & Tabs

Version: 1 Type: Tab 0 ratings
1 star 2 stars 3 stars 4 stars 5 stars
comments

Same In The End Tab

okay the last guy who did this song had the chorus' powerchords
correct, as well as the solo at the end. but the verses are like this:

1st verse
Dm (best played as a barre chord in 5th position)
--5-5-5-5-5-5-5---5-5--X-5-5-----------------------------------------
--6-6-6-6-6-6-6---5/6--X-5/6-----------------------------------------
--7-7-7-7-7-7-7---5/7--X-5/7-----------------------------------------
---------------------------------------------------------------------
---------------------------------------------------------------------
---------------------------------------------------------------------

Then the second and third verses start like this:
[ Tab from: http://www.guitartabs.cc/tabs/s/sublime/same_in_the_end_tab.html ]
----10-10---8--8-----5-5-5-----------------------------------------
----10-10---8--8-----6-6-6-----------------------------------------
----12-12---10-10----5-5-5------------------------------------------
--------------------------------------------------------------------
--------------------------------------------------------------------
--------------------------------------------------------------------

then they go back to the first verse riff starting when bradley sings
"I'm a triple rectified..." or "...Shut my mouth and put down my guitar",
respectively

As I said, refer to the first guys tab for the rest. I don't know the bass
yet but i'm close. E-mail me with any beef you've got at jpaynus@yahoo.com
Thank you 
Comments