Sublime - Romeo Chords & Tabs

 

Romeo Chords & Tabs

Sublime Chords & Tabs

Version: 1 Type: Bass Tab 0 ratings
1 star 2 stars 3 stars 4 stars 5 stars
comments

Romeo Bass Tab

   
E A D G tuning

intro:                                                                    
|-------0-----------0-----------------------------------------------------
|-----1-----------1---------1-----------1-----0-3---------3-0-------------
|-3-3-----3-3-3-3---------2-----------2---1-1-----1-1-1-1-----------2-5---
|---------------------4-4-----4-4-4-4---------------------------3-3-----3-


fill:     verse:
|---------|----------------------------------------------------------------
|-5-3-1-0-|----------------------------------------------------------------
|---------|-3-3-3-3-3-33-33-----------------1-1-1-1-1-11-11----------------
|---------|-----------------4-4-4-4-4-44-44-----------------3-3-3-3-3-33-33
[ Tab from: http://www.guitartabs.cc/tabs/s/sublime/romeo_btab.html ]
pre-chorus:
|------------------------------------------------------------------------------------
|----------------------------1-1-----------------------------------------------------
|--------------------3-3-1-1-----1-1h3--------------------3-3-1-1--------------------
|-1-1-4-4-3-3-3-3333-------------------1-1-4-4-3-3-3-3333---------4-4-3-33-4-4-4-4-3-

chorus: x7
|-----0-----0-------------
|---1-----1-----3-6---3-6-
|-3-----3-----4-----4-----
|-------------------------

verse
fill
verse
pre-chorus
chorus x7
intro x3

after "not sloppy drunk sex on a saturday night" play
|-----------------------
|-----------------------
|-3---4---3---4---3---4-
|-----------------------

chorus x4
intro x2

outro: x 19
|-------------------
|-------------------
|-3-3---3-2-1-1---1-
|-----3---------1---

that's it. it's really easy and fun to play.
Comments