Sublime - Rivers Of Babylon Chords & Tabs

 

Rivers Of Babylon Chords & Tabs

Sublime Chords & Tabs

Version: 2 Type: Tab 0 ratings
1 star 2 stars 3 stars 4 stars 5 stars
comments

Rivers Of Babylon Tab

#----------------------------------PLEASE NOTE---------------------------------#
#This file is the author's own work and represents their interpretation of the #
#song. You may only use this file for private study, scholarship, or research. #
#------------------------------------------------------------------------------#
Sublime - Rivers Of Babylon

his is a compilation of other tabs IÕve seen and my own way of playing it. I think it matches quite well. 

Intro - Capo 1st Fret
|-------------3---3-3---3-3-3-3----------------2-----2-3-2-2(0)--------------|
|-------------0---0-0---0-0-0-0----------------3-----3-3-3-3(0)--------------|
|-------------0---0-0---0-0-0-0(2x)------------2-----2-2-2-2(0)--0---0-------|
|-------------0---0-0---0-0-0-0----------------0-----0---------2--0h2----0---|
|-----2-2-3-0-2---2-2---2-2-2-2---2-2-3-3-2-0--0-----0----------------0h2----|
|-3-3---------3---3-3---3-3-3-3----------------------------------------------|
[ Tab from: http://www.guitartabs.cc/tabs/s/sublime/rivers_of_babylon_tab_ver_2.html ]
|-----3-3---3-3-3-3----------------------------------------------------------|
|-----0-0---0-0-0-0----------------------------------------------------------|
|-----0-0---0-0-0-0----------------------------------------------------------|
|-----0-0---0-0-0-0----------------------------------------------------------|
|-----2-2---2-2-2-2----------------------------------------------------------|
|-3---3-3---3-3-3-3----------------------------------------------------------|





Instrumental Break
|-------------3---3-3---3-3-3-3----------------2-----3p2-2-2---2-------------|
|-------------0---0-0---0-0-0-0----------------3-----3-3-3-3---3-------------|
|-------------0---0-0---0-0-0-0(2x)------------2---2-2-2-2-2---2----0--------|
|-------------0---0-0---0-0-0-0----0---0/2-0---0---0-----0-0---0-0h2----0----|
|-----2-2-3-0-2---2-2---2-2-2-2----2---2/3-2(0)0---0-----0-0---0-----0h2--0-2|
|-3-3---------3---3-3---3-3-3-3----------------------------------------------|

|-3-----3---3---3-3----------------------------------------------------------|
|-0-----0---0---0-0----------------------------------------------------------|
|-0-----0---0---0-0----------------------------------------------------------|
|-0-----0---0---0-0----------------------------------------------------------|
|-2-----2---2---2-2----------------------------------------------------------|
|-3-----3---3---3-3----------------------------------------------------------|



Tabman_oo7 ;)
----------
Comments