Sublime - Pool Shark Chords & Tabs

 

Pool Shark Chords & Tabs

Sublime Chords & Tabs

Version: 1 Type: Bass Tab 0 ratings
1 star 2 stars 3 stars 4 stars 5 stars
comments

Pool Shark Bass Tab

Song: Pool Shark (orig.)
Band: Sublime
Album: Robbin' the Hood
tabbed by: Rob MacGuffie (SubDubLBC@aol.com)


Verse 1:
G:-------------------------------------------------------------------------------------------------|
D:-------------------------------------------------------------------------------------------------|
A:--55555555-55555555-----------------------------------------------------------88888888-88888888--|
E:-------------------------------55555555-55555555-66666666-66666666-------------------------------|


|--------------------------------------------------|       |-------9----------------| (Repeat this part 3x) 
|--------------------------------------------------|       |----7-9-9-7-------9-----|	
|--99999999-99999999-------------------------------|       |--7------------7-9-9-7--|
|-------------------------------99999999-99999999--|       |--------------7---------|

[ Tab from: http://www.guitartabs.cc/tabs/s/sublime/pool_shark_btab.html ]
|------| (Let Ring)
|------|
|--9---|
|------|


|------------------------------------------------------------------------------------------------|
|------------------------------------------------------------------------------------------------|
|--99999999-99999999-----------------------------55555555-55555555-------------------------------|
|-------------------------------99999999-99999999-----------------------------55555555-55555555--|


|--------------------------------------------------|       |--------11-----------------------| (Repeat this part 3x) 
|--------------------------------------------------|       |----9-11--11-9-----------11------|	
|--66666666-66666666-------------------------------|       |--9------------------9-11--11-9--|
|-------------------------------88888888-88888888--|       |--------------------9------------|


|------| (Let Ring)
|------|
|------|
|--4---|

Comments