Sublime - Pool Shark Acoustic Chords & Tabs

 

Pool Shark Acoustic Chords & Tabs

Sublime Chords & Tabs

Version: 1 Type: Tab

Pool Shark Acoustic Tab

   
Artist: Sublime
Album: robbin’ the hood
Title: pool shark (acoustic)
Submitted: woozle_whos_name_is_peanut@hotmail.com

This is a great song about Brad’s heroin addiction.  Most of the tab is accurate (I’m 
all the chords are right) but the picking may be slightly wrong.  Oh well you get the idea……

N.B. i submitted this tab before a fe days ago and there were a couple of typing errors 
the intro so here it is again...

Intro
	Dm    Am            Dm
e -----5----5---------5---5-----------|
B -----6----5---------5---6-----------|
G -----7----5---------5---7-----------|
D -----7----7---------7---7-----------|
A ---5-5----7------5--7---5-----------|
E ----------5---5-----5---------------|


Verse 1: Brad picks the chords rather than strumming them in the first verse.

	Dm				      Am
e ------------------------------5------------------------------------|
B ------------6-------------------------5----------------------------|
G ---------------7-----------7-------------5----------5-5------------|
D ---------7--------7---------------------------------7-7--7--/------|
A -----5---------------5--5----------7----------7--7--7-7--7--/------|
E -----------------------------------5----------5--5--5-5--5--/------|
      Lying in my…			Thinking how thing…
[ Tab from: http://www.guitartabs.cc/tabs/s/sublime/pool_shark_acoustic_tab.html ]
    Bb					   F
e ---------------------------------------------------------------------------|
B --------6--------------6---------------------------------------------------|
G -----------7--------------7---------------10--------------10---------------|
D -------------8---------------8---------------10----10--------10--10---10---|
A --8--8-----------8---8-----------8---8--8--------8-----8---------8----8----|
E --6------------------6--------------------------------------------------8\-|
    My baby likes…		I like lying…

   Gb					    Db
e--------------------------------------------------------------------|
B----------------------------------------6--------------6--6--6------|
G--------3--------------3-------------6-----6--------6--6--6--6------|
D-----------4--------------4-------4-----------4--4-----4--4--4------|
A-----4--------4-----4--------4--------------------------------------|
E--2--------------2--------------------------------------------------|
   Tying off the dinosaur…	tonight used to be so cool

Chorus

E			B
Now I got the needle,

		E			B
And I can shake, but I can’t breathe

		E				   B
You take it away but I want more and more

  Gb ~~~
e-----------------------------------------------|
B--11-------------------------------------------|
G--11--11---------11-------11--11-11------------|
D--11------11--------------11--11-11------------|
A--9-----------9-------9---9---9---9---0--------|
E--------------------------------------0--------|
One day I’m gonna lose the war……


Verse 2:

Gbm						Dbm
Lying in my plastic bed, thinking how things weren’t so cool to me,


D					A
My baby likes to shoot pool, I like lying naked in my bedroom.


Bb						F
Tying off the dinosaur tonight, used to be so cool.


Chorus:

Gb			 Db
Now I got the needle,


		Gb				Db
And I can shake, but I can’t breathe,


		  Gb					Db
You take it away but I want more and more,


Ab~~~~~~~~
One day I’m gonna lose the war……


(finish on E~~~~~)


Any questions e-mail woozle_whos_name_is_peanut@hotmail.com