Sublime - Pawn Shop Chords & Tabs

 

Pawn Shop Chords & Tabs

Sublime Chords & Tabs

Version: 5 Type: Tab 0 ratings
1 star 2 stars 3 stars 4 stars 5 stars
comments

Pawn Shop Tab

Band:   Sublime
Song:   Pawn Shop
Album:  Sublime
Tuning: Standard

  Introduction (Distortion)      4x
||----------------|----------------||
||----------------|----------------||
||*---------------|---------------*||
||*---------------|---------------*||
||--------10------|----------------||
||--10h12----<12>~|~~~~~~~~~~~~~~~~||
  
  Solo                                                        3x
||----------------------||--------------------------------------||
||----------------------||--------------------------------------||
||----------------------||*------------------------------------*||
||-------------------12-||*------------------------<12>--------*||
||-12h14-12----12-14----||-12h14-12-----------12/14----14p12-14-||
||----------15----------||----------15--12-15-------------------||

||----------------------------------------------------------|-
||----------------------------------------------------------|-
||-------------------------------------------12-------------|-
||--------------------------12---------12-14----14~~~~~~~~~-|-
||-12h14-12-----------12/14---14-12-14----------------------|-
||----------15--12-15---------------------------------------|-
[ Tab from: http://www.guitartabs.cc/tabs/s/sublime/pawn_shop_tab_ver_5.html ]
-|-------------------------------------------------------|------------------
-|-------------------------------------------------------|-10/12-10-8-10-12-
-|----------12-------------------------------------12----|------------------
-|-12-12-14----12h14-12h14-12----------12---12h14---(14)|------------------
-|----------------------------14-12-14-------------------|------------------
-|-------------------------------------------------------|------------------

-|-10-----------------------10----------------15-----------------15-------|-
-|-----10/12-10-8---8-10-12----12-10-12-15-17----17~~~~-15-15-17----15h17-|-
-|----------------9-------------------------------------------------------|-
-|------------------------------------------------------------------------|-
-|------------------------------------------------------------------------|-
-|------------------------------------------------------------------------|-

                                                                         3x
-|------------------------------------||-----------------------------------||
-|-15h17-15\12\10h12------------------||-----------------------------------||
-|------------------12h14-------------||*---------------------------------*||
-|------------------------12h14-------||*---------------------------------*||
-|------------------------------12h14-||--------1010-------1010------------||
-|------------------------------------||--10-12------10-12------12-10\7-10-||
                                         ^^^^^^^^^^^^Palm-mute^^^^^^^^^^^^
  Verse                                  *also the Bass line for the song*    
||--7----7--||
||--8----7--|| <-----Repeat this throughout Bradley style
||--9----7--||
||----------|| The rest of the song is very similar but there are slight
||----------|| differences in the introduction/solo shown above.
||----------||
Comments