Sublime - Pawn Shop Chords & Tabs

 

Pawn Shop Chords & Tabs

Sublime Chords & Tabs

Version: 4 Type: Tab

Pawn Shop Tab

e|-----------------------------------------|
B|-----------------------------------------|
G|-----------------------------------------|
D|-----0-0-----0-0-------------------------|
A|-0-2-----0-2-----2-0---0-----------------|
E|---------------------2-------------------|
[ Tab from: http://www.guitartabs.cc/tabs/s/sublime/pawn_shop_tab_ver_4.html ]
e|-----------------------------------------|
B|-----------------------------------------|
G|-----------------------------------------|
D|-----0-0-----0-0-------------------------|
A|-0-2-----0-2-----2-0---0-----------------|
E|---------------------2-------------------|
[ Tab from: http://www.guitartabs.cc/tabs/s/sublime/pawn_shop_tab_ver_4.html ]
e|-----------------------------------------|
B|-----------------------------------------|
G|-----------------------------------------|
D|-----0-0-----0-0-------------------------|
A|-0-2-----0-2-----2-0---0-----------------|
E|---------------------2-------------------|