Sublime - Pawn Shop Chords & Tabs

 

Pawn Shop Chords & Tabs

Sublime Chords & Tabs

Version: 2 Type: Tab 0 ratings
1 star 2 stars 3 stars 4 stars 5 stars
comments

Pawn Shop Tab

------------------------------------------------------------------------------
------------------------------------------------------------------------------
------0-----------------------------------------------------------------------
-0-h2---2---------------------------------------------------------------------
------------------------------------------------------------------------------
------------------------------------------------------------------------------
 play 4 times^                                                                

-----------------|------------------------------------------------------------
--------------3--|-----------------3------------------------------------------
-/4--2--0-2-4----|--/4-2-0---0-2-4---4-2-4^-----------------------------------
-----------------|---------2--------------------------------------------------
-----------------|------------------------------------------------------------
-----------------|------------------------------------------------------------
 Transition         ^Play this  3 times^                                      
[ Tab from: http://www.guitartabs.cc/tabs/s/sublime/pawn_shop_tab_ver_2.html ]
----------------------------0-3-0-|-----0-3-0-0-----------|---0-3-------------
----------------3--------/3-------|-3-3---------3-------3-|-3-----5v-5/12-12--
-/4-2-0---0-2-4---4-2-4-----------|---------------4-2-4---|-------------------
--------2-------------------------|-----------------------|-------------------
----------------------------------|-----------------------|-------------------
----------------------------------|-----------------------|-------------------
                                                                              

------------10-|----------------------10----------10-12-15-12v--10-10-12-15---
-10-8-10-12----|-10h12-10-8---8-10-12----12-10-12-----------------------------
---------------|------------9-------------------------------------------------
---------------|--------------------------------------------------------------
---------------|--------------------------------------------------------------
---------------|--------------------------------------------------------------
                                                                              

-12-12-10----------------------------------|----------------------------------
----------12-10-h12------------------------|----------------------------------
--------------------12-h14-----------------|----------------------------------
---------------------------12-h14----------|----------------------------------
-----------------------------------12-h14--|----7-10-10----7-10-10-7----------
-------------------------------------------|-10---------10-----------10-7-10--
                                            [ --- play 3x and palm mute --- ] 
Comments