Sublime - Pawn Shop Chords & Tabs

 

Pawn Shop Chords & Tabs

Sublime Chords & Tabs

Version: 1 Type: Tab 0 ratings
1 star 2 stars 3 stars 4 stars 5 stars
comments

Pawn Shop Tab

This is my first atempt to tab a song.  I didnt try to get the timing right. Im sure 
there are problems with it, so send all of your coments to DHarvey44082@aol.com. Enjoy!


play 4 times:              
e----------------------------------
b----------------------------------                          
g-----5----------------------------              
d-5-7---7~~~~----------------------
a----------------------------------
e----------------------------------

after the fourth time play:
e----------------------------------
b---------------7------------------
g-5/9-7/5-7-7/9--------------------
a----------------------------------
e----------------------------------

play 2 times:
e----------------------------------
b-------------------7--------------
g-5/9-7/5---5-7-7/9---9-7-9p7------
a---------7------------------------
e----------------------------------
[ Tab from: http://www.guitartabs.cc/tabs/s/sublime/pawn_shop_tab.html ]
after the second time play:
e-------------------------------8---
b-------------------7-------7-9---9-
g-5/9-7/5---5-7-7/9---9-7-9---------
a---------7-------------------------
e-----------------------------------

e-------------------------------8---
b-------8-------------------7h9---9-
g-7-7-9---9-9-7--------7------------
a---------------h9-7h9--------------
e-----------------------------------

e-------------------10-
b-10/12-10----10-12---- 
g----------12----------
a----------------------
e----------------------

e-------------------------10----------10-12/15-12---10-10--12/15-12-12-10---------------------------
b-10/12-10----------10-12----12-10-12-------------------------------------h12-10h12-8h10------------
g----------h12-9-12----------------------------------------------------------------------9h12-7h9---
a---------------------------------------------------------------------------------------------------
e---------------------------------------------------------------------------------------------------


play 4 times
e------------------------------------
b------------------------------------
g------------------------------------
d-----5-5-----5-5--------------------
a-5-7-----5-7-----7-5---5------------
e---------------------7--------------


There it is.
Comments