Sublime - Paddle Out Chords & Tabs

 

Paddle Out Chords & Tabs

Sublime Chords & Tabs

Version: 3 Type: Tab 0 ratings
1 star 2 stars 3 stars 4 stars 5 stars
comments

Paddle Out Tab

Sublime
Paddle Out Solo
Album: Sublime
Tabbed by: Anday R


E|---/10-10--------------------------------------|
B|---/10-10-12-10-----------10-12b-12b-12b-12r---|
G|----------12-10--10h11----10-12b-12b-12b-12r---|
D|-----------------------12----------------------|
A|-----------------------------------------------|
E|-----------------------------------------------|


E|---/10-10---------------10-10----10-10-----------|
B|---/10-10-12-10--12-----10-10----10-10-----------]
G|----------12-10--12-----------10-----------------|
D|--------------------12---------------------------|
A|-------------------------------------------------|
E|-------------------------------------------------|


[ Tab from: http://www.guitartabs.cc/tabs/s/sublime/paddle_out_tab_ver_3.html ]
              Let Ring[--------]
E|-1-1-------------------------------------------|
B|-1-1-3--1--------------4---4-------------------|
G|-----3--1-1h2---1--3/5---5---------------------|
D|--------------3--------------------------------|
A|-----------------------------------------------|
E|-----------------------------------------------|



E|---1-1-----4-1-----/13--13\--------------------|
B|---1-1-3-1-----1---/13--13\--------------------|
G|-------3-1---------/14--14\--------------------|
D|-----------------------------------------------|
A|-----------------------------------------------|
E|-----------------------------------------------|


h - hammer on
b - bend
r - release
/ - slide up
\ - slide down
Comments