Sublime - Paddle Out Chords & Tabs

 

Paddle Out Chords & Tabs

Sublime Chords & Tabs

Version: 2 Type: Tab 0 ratings
1 star 2 stars 3 stars 4 stars 5 stars
comments

Paddle Out Tab

The other guy's riff was wrong, so here's the way it really goes...


Played with heavy distortion:

Intro:

e|---------------------------------------------------------------------------|
B|--3-3-3--------------------------------------------------------------------|
G|--2-2-2---------5-5-5--2---------------------------------------------------|
D|--0-0-0--4-4-4--5-5-5--2---------------------------------------------------|
A|---------4-4-4--3-3-3--0---------------------------------------------------|
E|---------2-2-2-------------------------------------------------------------|

Verse (both):
[ Tab from: http://www.guitartabs.cc/tabs/s/sublime/paddle_out_tab_ver_2.html ]
e|---------------------------------------------------------------------------|
B|--3-3-3--------------------------------------------------------------------|
G|--2-2-2-----------5-5-5--2-2-2-2-------------------------------------------|
D|--0-0-0--4-4-4-4--5-5-5--2-2-2-2-------------------------------------------|
A|---------4-4-4-2--3-3-3--0-0-0-0-------------------------------------------|
E|---------2-2-2-2-----------------------------------------------------------|

Solo, no distortion:
e|--------------------------------------|
B|--------------------------------------|
G|--------------------------------------|
D|--7-10-9-----7-10-9-----7-10-9----7---|
A|---------10---------10---------10-----|
E|--------------------------------------|

e|-------------------------------------|
B|-------------------------------------|
G|--7-10-9-----7-10-9-----7-10-9-------|
D|---------10---------10---------10/---|   ---slide all the way down
A|-------------------------------------|
E|-------------------------------------|

Heres the little interlude part, played with distortion:
e|------------------|
B|------------------|
G|------------------|
D|------------------|     x4
A|--2-0-2-0---------|
E|----------2-0-----|  

/ = slide down the neck
~ = vibrato


By Jordan
Comments