Sublime - No Woman No Cry Chords & Tabs

 

No Woman No Cry Chords & Tabs

Sublime Chords & Tabs

Version: 3 Type: Tab 0 ratings
1 star 2 stars 3 stars 4 stars 5 stars
comments

No Woman No Cry Tab

   
hey this is my very first tab and what tab better than sublime! the other tab 4 this
songwas alright but when u play u can tell its wrong so i made some corrections it
works for 
hope ya like it. this is for jeremy!lol i can play this song


     (C)   (G5)   (Esus)
e-----0-  --3--  --0--|
b-----1-  --3--  --0--|
g-----0-  --0--  --2--|
D-----2-  --0--  --2--|
A-----3-  --2--  --0--|
E-----x-  --3--  --0--|


main verse:
e----0----------3---0-0-|--------------------------|
b----1----------3---0-0-|--------------------------|
g----0----------0---2-2-|--------------------------|
D----2--0-0-0---0---2-2-|--2-2-3-3-2--0h2p0--------|
A-3--3--2-2-2---2---0-0-|-------------------3------|
E----x--3-3-3---3---0-0-|--------------------------|
    down up down

to make it easier
 for u heres the parts
of the up and down strokes
[ Tab from: http://www.guitartabs.cc/tabs/s/sublime/no_woman_no_cry_tab_ver_3.html ]
chorus: this is the distortion part
e----------|-------------------------------------|
b----------|-------------------------------------|
g----------|--5-5-5-5-5-5-5-5--------------------|
D-5--------|--5-5-5-5-5-5-5-5--5-5-5-5-5-5-5-5---|
A-3-X12----|--3-3-3-3-3-3-3-3--5-5-5-5-5-5-5-5---|
E----------|-------------------3-3-3-3-3-3-3-3---|
{palm mute}


e-------------------------------------------------|
b-------------------------------------------------|
g------------------9-9-9-9--7-7-7-7---------------|
D-7-7-7-7-7-7-7-7--9-9-9-9--7-7-7-7---------------|
A-7-7-7-7-7-7-7-7--7-7-7-7--5-5-5-5---------------|
E-5-5-5-5-5-5-5-5---------------------------------|
all up and down strokes

versel:

       (C)                 (G5)
e--0--0---00--00-----3--3---33--33--3----0--0---00--00--0--0------------|
b--1--1---11--11-----3--3---33--33--3----0--0---00--00--0--0------------|
g--0--0---00--00-----0--0---00--00--0----2--2---22--22--2--2------------|
D--2--2---22--22-----0--0---00--00--0----2--2---22--22--2--2------------|
A--3--3---33--33-----2--2---22--22--2----0--0---00--00--0--0------------|
E--x--x---xx--xx-----3--3---33--33--3----0--0---00--00--0--0------------|
this is the little chord part right b4 the last chorus
hope your like the tab
                - Paul Solis
Comments