Sublime - No Woman No Cry Chords & Tabs

 

No Woman No Cry Chords & Tabs

Sublime Chords & Tabs

Version: 2 Type: Tab 0 ratings
1 star 2 stars 3 stars 4 stars 5 stars
comments

No Woman No Cry Tab

   
this is my first song as a member maybe it'll get put up soon.

Artist:Sublime
Album: unknown
Transcribed by: Pablo Vadillo
These are the chords that are used in the song.

     (C)   (G5)   (Am)
e-----0-  --3--  --0--
b-----1-  --3--  --1--
g-----0-  --0--  --2--
D-----2-  --0--  --2--
A-----3-  --2--  --0--
E-----x-  --3--  --0--

this is the riff played over and over and over throughout the whole song.

e----0-----3-3--0---------------- |
b----1-----3-3--1----------------*|
g----0-----0-0--2---------------- |
D----2-----0-0--2--3-3-2-0h2p0--- |
A-3--3-----2-2--0--------------3-*|
E----x--3--3-3--0---------------- |

this is a really easy song and it took me about five minutes to figure it out after 
i downloaded it. this also sounds good with the marley version or over an Am pentatonic
scale:
[ Tab from: http://www.guitartabs.cc/tabs/s/sublime/no_woman_no_cry_tab_ver_2.html ]
e--------------------5-8 8-5---------------|
b-----------------5-8--- ---8-5------------|
g-------------5-7------- ------7-5---------|
D---------5-7----------- ---------7-5------|
A-----5-7--------------- ------------7-5---|
E-5-8------------------- ---------------8-5|

Or a Cmaj sliding scale

e----------------------------------15-17-20
b--------------------------13-15-17--------
g---------------------12-14----------------
D-------------10-12/14---------------------
A--------10-12-----------------------------
E-8-10/12----------------------------------

and back down

e-20-17-----------------------------|
b------20-17------------------------|
g-----------19-17-------------------|
D----------------19-17--------------|
A---------------------19-17---------|
E--------------------------20-17/8-5|

that's all ther is to it just play with the scales and soloing will get easy pretty fast. 
Also check out my other tab for Foolish Fool by Sublime.

Any questions or comments feel free to e-mail me at p_vadillo25@hotmail.com . 
i hope you enjoy these tabd as much as i enjoyed writing them.
Comments