Sublime - New Realization Chords & Tabs

 

New Realization Chords & Tabs

Sublime Chords & Tabs

Version: 1 Type: Bass Tab 0 ratings
1 star 2 stars 3 stars 4 stars 5 stars
comments

New Realization Bass Tab

   
Song: New Realization 
Band: Sublime 
Album: Second Hand Smoke 
tabbed by: Jason Davis (dubtones@hotmail.com) 
  
  
  
G:--------------------------------------------------------------- 
D:--------------------------------------------------------------- 
A:---(3)3333-(0)0000-(3)3333-(5)5530----------------------------- 
E:--------------------------------------------------------------- 
  

G:--------------------------------------------------------------- 
D:--------------------------------------------------------------- 
A:-----------------------------------(5)5555-(3)3 (0)0----------- 
E:---(3)3333-(0)0000-(3)3333-(0)0000----------------------------- 
  
[ Tab from: http://www.guitartabs.cc/tabs/s/sublime/new_realization_btab.html ]
G:--------------------------------------------------------------- 
D:--------------------------------------------------------------- 
A:--------------------------------------------------------------- 
E:-(3)3333-(0)0000-(3)3333-(0)0000-(3)3333-(0)0000-(3)3333-(0)000 
  

G:--------------------------------------------------------------- 
D:--------------------------------------------------------------- 
A:---(3)3333-(0)0000-(3)3333-(5)5530----------------------------- 
E:--------------------------------------------------------------- 
  

G:--------------------------------------------------------------- 
D:--------------------------------------------------------------- 
A:-----------------------------------(5)5555-(3)3 (0)0----------- 
E:---(3)3333-(0)0000-(3)3333-(0)0000----------------------------- 
  

G:--------------------------------------------------------------- 
D:--------------------------------------------------------------- 
A:---5--5---2--2---5--5---2--2----(5)5555-(3)3 (0)0-------------- 
E:--3-33-3-0-00-0-3-33-3-0-00-0---------------------------------- 
  
  
  


Comments