Sublime - Hong Kong Phooey Chords & Tabs

 

Hong Kong Phooey Chords & Tabs

Sublime Chords & Tabs

Version: 2 Type: Bass Tab 0 ratings
1 star 2 stars 3 stars 4 stars 5 stars
comments

Hong Kong Phooey Bass Tab

Song: Hong Kong Phooey
Band: Sublime
Album: Saturday Morning Cartoons
Tabbed by: Rob MacGuffie (SubDubLBC@aol.com)

 
 Intro:
 |----------------------|
 |----------------------|
 |----------(2)-----(4)-|
 |-(5)------------------|

 Bridge:
 |-10-10-10--7-7-7--5-5-5---------|
 |------------------------7--5----|
 |------------------------------8-|
 |--------------------------------|

 Verse: Variation 1
 |------------------------|
 |------------------------|
 |-5--5-------5--5--------|
 |------5--8-------5-5--8-|
[ Tab from: http://www.guitartabs.cc/tabs/s/sublime/hong_kong_phooey_btab_ver_2.html ]
 Verse: Variation 2
 |---------------------------|
 |---------------------------|
 |-------7-7--4-------7-7--4-|
 |-5--5----------5--5--------|

 Chorus: 2x
 |-----7-7---7-5-----------7-7----(5)-----|
 |---------7------(7)----------7------(7)-|
 |-5-5-----------------5-5----------------|
 |----------------------------------------|

 
 Before Bridge:
 |---------------------------------------------------|
 |---------------------3-3-3--5-5-5--7-7-7--10-10-10-|
 |-------3-3-3--5-5-5--------------------------------|
 |-5-5-5---------------------------------------------|

 
 Pawnshop part:
 
1st Time
  Only
 |-----| |-------------------------|
 |-3-3-| |-----3-3-----3-3---------|
 |-----| |-3h5-----3h5-----5-3---3-|
 |-----| |---------------------5---|

|KEY|

()= Let Ring
h = Hammer On
Comments