Sublime - Garden Grove Chords & Tabs

 

Garden Grove Chords & Tabs

Sublime Chords & Tabs

Version: 2 Type: Tab 0 ratings
1 star 2 stars 3 stars 4 stars 5 stars
comments

Garden Grove Tab

Artist: Sublime
Album: Sublime / second-hand smoke
Song: Garden Grove a.k.a garbage grove
From: Mike Theobald

**normal tuning**

 e|---------------|
 B|---------------|
 G|---------------|
 D|-2h5p4p2-----2-|
 A|---------3h4---|
 E|---------------|
 
 Verse:
 e|-----------------------------------------------------------|
 B|-----------------------------------------------------------|
 G|----------------------------0------------2-----------------|
 D|-------2--2p0---0-----0--0-----2--2------2--2-------0--0---|
 A|-0-----0------------------------------0--------------------|
 E|-------------------3---------------------------3-----------|
[ Tab from: http://www.guitartabs.cc/tabs/s/sublime/garden_grove_tab_ver_2.html ]
 e|-------------------------------------------------------3---|
 B|-------------------------0--------------2---3---0------2---|              
 G|--------2---0-0-0-0----0------------2-----0---2----2-4-----|
 D|---2--2-2-----------0-------0-0--2----2--------------------|
 A|---------------------------------0-------------------------|
 E|-----------------------------------------------------------|
 
 e|-----------------------------5--|
 B|---------------0-----0--0--x-2--|
 G|---4--4b1/4--2----0--0--0--x-2--|
 D|-----------------------------2--|
 A|--------------------------------|
 E|--------------------------------|
 
 The rest of the Verse is (reggae) A , G
 
 Bridge(If you only Knew): 
 e|-5-5--5-5-5--5-x-5--5-5-5-|
 B|-5-5--5--------5------x---|
 G|--------------------------|
 D|--------------------------|
 A|--------------------------|
 E|--------------------------|

 the rest of the song is A, and G chords
Comments