Sublime - Falling Idols Chords & Tabs

 

Falling Idols Chords & Tabs

Sublime Chords & Tabs

Version: 1 Type: Bass Tab 0 ratings
1 star 2 stars 3 stars 4 stars 5 stars
comments

Falling Idols Bass Tab

So I ask people if they know this song and if they can make a tab and absolutley nothing
happens... so I decided to come up with what I thought might be the closest possible Bass
tab for this song and yeah probably not perfect, but have fun cuz this song is quite bitchin...

First Intro
G|-22222-3/5555555-0-----------------------------------------|
D|---------------------------55555-3-00000000----------------|
A|-----------------------------------------------------------|
E|-----------------------------------------------------------|

Bridge
G|---------------------------------------------------------|
D|-0--0--3/5-----------------------------------------------|
A|---------------------------------------------------------|
E|---------------------------------------------------------|

First Main Riff
G|------333---------------------------------------------------|
D|-2-2------4-4444-5------------------------------------------|
A|------------------------------------------------------------|
E|------------------------------------------------------------|
[ Tab from: http://www.guitartabs.cc/tabs/s/sublime/falling_idols_btab.html ]
Second Main Riff
G|-22222-3/5555555-0-------------------------------------------|
D|---------------------------55555-3-00000000------------------|
A|-------------------------------------------------------------|
E|-------------------------------------------------------------|

Second Intro
G|--------------------------------------------------------------|
D|----------------------------33333-2-00000000------------------|
A|-00000-2-33333333-0-------------------------------------------|
E|--------------------------------------------------------------|

Bridge to THE Main Bass Line
G|------------------------------------------------------------|
D|------------------------------------------------------------|
A|------------------------------------------------------------|
E|-1-1-2--3----1--0-------------------------------------------|

THE Main Bass Line
G|--------------------------------------------------------------|
D|-----333-----------------333----------------------------------|
A|-22------4-444-5-0-22------4-444-5-0--------------------------|
E|--------------------------------------------------------------|


-Danger
Comments