Sublime - Eye Of Fatima Chords & Tabs

 

Eye Of Fatima Chords & Tabs

Sublime Chords & Tabs

Version: 2 Type: Tab 0 ratings
1 star 2 stars 3 stars 4 stars 5 stars
comments

Eye Of Fatima Tab

   
|--------------------------------------------------|
|Sublime-Sublime Acoustic: Bradley Nowell & Friends|
|What Happened/Eye of Fatima                       |
|Tabs by: Sébastien Couture (batookee@nbnet.nb.ca) |
|--------------------------------------------------|

I've been trying to find this tab on the net for months. I couldn't find one that 
made sence. So I told myself, "Why don't I write it?" So I did. It's only two power 
chords so it's really easy.
Here it goes...

Chord 1            Chord 2
||-x-|---|---||    ||-x-|---|---||
||-x-|---|---||    ||-x-|---|-x-||
||-x-|-x-|---||    ||-x-|---|-x-||
||-x-|---|-x-||    ||-x-|---|-x-||
||-x-|---|-x-||    ||-x-|---|---||
||-x-|---|---||    ||-x-|---|---||

Eadd11+  (7 9 9 8 7 7)
C#add11+ (4 6 6 5 4 4)
Dadd11+  (5 7 7 6 5 5)
Bsus4    (7 7 9 9 9 7)
G#       (4 6 6 5 4 4)
A        (5 7 7 6 5 5)
A#       (6 8 8 7 6 6)
C#sus4   (9 9 11 11 11 9)



-Chord 1-
         She's got the   Eye of Fatima                      in the     wall of his room     
E||-------------------|--7----7----7----7----|--7----7----7----7----|--4----4----4----4----|
B||-------------------|--7----7----7----7----|--7----7----7----7----|--4----4----4----4----|
G||*------------------|--8----8----8----8----|--8----8----8----8----|--5----5----5----5----|
D||*------------------|--9----9----9----9----|--9----9----9----9----|--6----6----6----6----|
A||-------------------|--9----9----9----9----|--9----9----9----9----|--6----6----6----6----|
E||-------------------|--7----7----7----7----|--7----7----7----7----|--4----4----4----4----|


               Three     bottles of Tequila                  Three     cats and a broom     
--4----4----4----4----|--7----7----7----7----|--7----7----7----7----|--4----4----4----4----|
--4----4----4----4----|--7----7----7----7----|--7----7----7----7----|--4----4----4----4----|
--5----5----5----5----|--8----8----8----8----|--8----8----8----8----|--5----5----5----5----|
--6----6----6----6----|--9----9----9----9----|--9----9----9----9----|--6----6----6----6----|
--6----6----6----6----|--9----9----9----9----|--9----9----9----9----|--6----6----6----6----|
--4----4----4----4----|--7----7----7----7----|--7----7----7----7----|--4----4----4----4----|
[ Tab from: http://www.guitartabs.cc/tabs/s/sublime/eye_of_fatima_tab_ver_2.html ]
                                                                    -Chord 2-
               He got a  15-year-old angel                   And she's all dressed in black 
--4----4----4----4----|--5----5----5----5----|--5----5----5----5----|--7----7----7----7----|
--4----4----4----4----|--5----5----5----5----|--5----5----5----5----|--9----9----9----9----|
--5----5----5----5----|--6----6----6----6----|--6----6----6----6----|--9----9----9----9----|
--6----6----6----6----|--7----7----7----7----|--7----7----7----7----|--9----9----9----9----|
--6----6----6----6----|--7----7----7----7----|--7----7----7----7----|--7----7----7----7----|
--4----4----4----4----|--5----5----5----5----|--5----5----5----5----|--7----7----7----7----|

-Chord 1-                                                           -Chord 2-
             He got     15 bindles of          cocaine tied up in a   sack
------4----5----6----|--7----7----7----7----|--5----5----5----5----|--9-----9-----9-----9--|
------4----5----6----|--7----7----7----7----|--5----5----5----5----|--11----11----11----11-|
------5----6----7----|--8----8----8----8----|--6----6----6----6----|--11----11----11----11-|
------6----7----8----|--9----9----9----9----|--7----7----7----7----|--11----11----11----11-|
------6----7----8----|--9----9----9----9----|--7----7----7----7----|--9-----9-----9-----9--|
------4----5----6----|--7----7----7----7----|--5----5----5----5----|--9-----9-----9-----9--|



--9-----9-----9-----9-----|
--11----11----11----11----|
--11----11----11----11----|
--11----11----11----11----|
--9-----9-----9-----9-----|
--9-----9-----9-----9-----|



|--------------------|
|The rest is the same|
|--------------------|

This here's a government experiment
And we're drivin' like hell
We'll get some cowboys on acid
And stay in motels
We gonna eat up some wide open spaces
Like it was the top of the Nile
The hands on the clock are gonna be here
A while

An eye of Eye of Fatima
In the wall of the hotel room
And cowboys on acid
Are like Egyptian cartoons
No one ever conquered Wyoming
From the left or from the right
Just stay in the hotel room
Stay up all night 



|----|
|Solo|
|----|

(This is really easy you just slide your hand with the same power chord as before.)

E||-----------------------------------------------------|
B||-----------------------------------------------------| repeat 2x
G||-----------------------------------------------7-----|
D||-----9--9--9--9-----------------9--9--9--7--6-----9--|
A||-----------------6--7--8--9--------------------------|
E||--7--------------------------7-----------------------|
Comments