Sublime - Ebin Chords & Tabs

 

Ebin Chords & Tabs

Sublime Chords & Tabs

Version: 1 Type: Bass Tab 0 ratings
1 star 2 stars 3 stars 4 stars 5 stars
comments

Ebin Bass Tab

Band: Sublime
Song Title: Ebin
Album: 40oz To Freedom 
Author: Lbdas439@aol.com,Mike
Tuning:standard

Once again, this is already in your archive, but this version
is actully correct. This song has alot of repition so listen 
to the cd and figure it out. It can can be hard on some 
fast parts.

G|--|-------------------7----------------------
D|--|--------------7-9------9------------------
A|--|----------7-9-----------------------------  
E|-7|---7--10----------------------------------

G|--|------999--|------------7-----7-----------
D|--|-----------|--7h8h9--------9--------------
A|-7|---7-------|------------------------------  
E|--|-----------|------------------------------

G|--|-------------------7----------------------
D|--|--------------7-9------9------------------
A|--|----------7-9-----------------------------  
E|-7|---7--10----------------------------------


G|--|------999---------------------------------
D|--|--------------6-7-8-9---------------------
A|-7|---7-------7------------------------------  
E|--|------------------------------------------

G|---|-----|---|-----|----------|----------7---
D|---|-----|---|-----|----------|-----7-9----9-
A|---|--7--|---|--7--|----------|-7-9----------  
E|-7-|-----|-7-|-----|-7-7-7--10|--------------

G|-------|-9-9-9-|--------7---7-|----------|--------7--
D|-------|-------|-7h8h9----9---|----------|----7-9---9
A|-------|-------|--------------|----------|7-9--------  
E|-7-7-7-|-------|--------------|-7-7-7--10|-----------

you play the first part here....there alot of repitition....


G|-------|--------|--------|------|------|------
D|-------|--------|--------|------|------|------
A|-------|--------|---0-1-2|------|------|------  
E|3-3-3-3|-3-3-2-2|-2------|-7-7-7|-7-7-7|-7-7-7

G|------|------|------|-------
D|------|------|------|-------
A|------|------|------|-------  
E|-7-7-7|-7-7-7|-7-7-7|-7-7-7-
[ Tab from: http://www.guitartabs.cc/tabs/s/sublime/ebin_btab.html ]
G|------|------|------|-------
D|------|------|------|-------
A|-5-5-5|-5-5-5|-5-5-5|-5-5-5-
E|------|------|------|-------

G|------|------|------|-------
D|------|------|------|-------
A|------|------|------|-------
E|-5-5-5|-5-5-5|-5-5-5|-5-5-5-

G|------|------|------|-------
D|------|------|------|-------
A|-7-7-7|-7-7-7|-7-7-7|-7-7-7-
E|------|------|------|-------

G|--------|--------|--------|--------|
D|-9-9-9--|-9-9-9--|-9-9-9--|-9-9-9--|
A|-------9|-------9|-------9|-------9|     
E|--------|--------|--------|--------|

G|-----------|-----------|-----------|-----------|
D|-12-12-12--|-12-12-12--|-12-12-12--|-12-12-12--|
A|---------12|---------12|---------12|-----------|     
E|-----------|-----------|-----------|---------12|

G|-----------|-----------|-----------|-----------|
D|-----------|-----------|-----------|-----------|
A|-12-12-12--|-12-12-12--|-12-12-12--|-----------|
E|---------12|---------12|---------12|12-12-12-12|

G|-----------|-----------|-----------|-----------|
D|-----------|-----------|-----------|-----------|
A|-----------|-----------|-----------|-----------|
E|12-12-12-12|12-12-12-12|12-12-12-12|12-12-12-12|    


G|--------------|------------|-----------|
D|-------7-7-9-9|-------12-12|11-11-10-10|
A|----9-9-------|------------|-----------|
E|7-7-----------|10-10--10-10|-9--9--8--8|  

G|--------------|------------|-----------|
D|-------5-5-7-7|-----6------|7---8--9---|
A|---7-7--------|7-7----7----|--7--------|
E|5-5-----------|------------|-----------|


G|--------------|------------|-----------|-----------|
D|-------12-----|12--12h13h14|12-12-12-12|12-12-12-12|
A|14-14------14-|--14--------|-----------|-----------|
E|--------------|------------|-----------|-----------|


G|--------------------|-----------|-----------|
D|------11---12--13-14|-----------|-----------|
A|12-12---12---12-----|-----------|-----------|
E|--------------------|12-12-12-12|12-12-12-12|  

Comments