Sublime - Djs Chords & Tabs

 

Djs Chords & Tabs

Sublime Chords & Tabs

Version: 2 Type: Bass Tab 0 ratings
1 star 2 stars 3 stars 4 stars 5 stars
comments

Djs Bass Tab

Song: D. J.'s
Band: Sublime
Album: 40 Oz To Freedom
Tabbed by: Rob MacGuffie (SubDubLBC@aol.com)
Comments: What other Website has this one??
Tuning: Standard (EADG)


Verse One: Play 8x
 |--------------------|
 |---5----------------|
 |-3-----2-3---3---2--|
 |-----3---------3----|

				    Then
 |--------------0----|      |-------------------------------0-0------|
 |----------2-2---2--| 2x   |-3-3-3--3-------------------------------|
 |-0-0-3-0-----------|      |----------3-3-2-3--3--------------------|
 |-------------------|      |---------------------3-3-2-3-3------3-3-|


Verse One: Play 8x
 |--------------------|
 |---5----------------|
 |-3-----2-3---3---2--|
 |-----3---------3----|

				    Then
 |--------------0----|      |-------------------------------0-0------|
 |----------2-2---2--| 2x   |-3-3-3--3-------------------------------|
 |-0-0-3-0-----------|      |----------3-3-2-3--3--------------------|
 |-------------------|      |---------------------3-3-2-3-3------3-3-|
 
[ Tab from: http://www.guitartabs.cc/tabs/s/sublime/djs_btab_ver_2.html ]
Verse 2: Play 7x
 |---------------------|
 |---------------------|
 |-3-3----2-3---3---2--|
 |-----3----------3----|

				    Then
 |--------------0----|      |-------------------------------0-0------|
 |----------2-2---2--| 2x   |-3-3-3--3-------------------------------|
 |-0-0-3-0-----------|      |----------3-3-2-3--3--------------------|
 |-------------------|      |---------------------3-3-2-3-3------3-3-|


Verse 2: Play 7x
 |---------------------|
 |---------------------|
 |-3-3----2-3---3---2--|
 |-----3----------3----|

				    Then
 |--------------0----|      |-------------------------------0-0------|
 |----------2-2---2--| 2x   |-3-3-3--3-------------------------------|
 |-0-0-3-0-----------|      |----------3-3-2-3--3--------------------|
 |-------------------|      |---------------------3-3-2-3-3------3-3-|


Outro: Play 13x
 |----------------------------------------|
 |-----5-5-5-5-5-5-3-5---------------0-0--|
 |-3-----------------------3-3------------|
 |----------------------1-------1-3-------|
Comments