Sublime - Date Rape Chords & Tabs

 

Date Rape Chords & Tabs

Sublime Chords & Tabs

Version: 5 Type: Tab 0 ratings
1 star 2 stars 3 stars 4 stars 5 stars
comments

Date Rape Tab

----------------------------------------------------------------------
			  Date Rape Solo - Sublime
                              Tabbed By: Cisco
----------------------------------------------------------------------
                  
   
 e|-----------------------------------------------------------------|
 B|-----------------------------------12----------------------------|
 G|-(9)----(12)----(14)-(12)----14b16----(16)r14-12----12h14r12-----|
 D|-------------------------------------------------14----------14--|
 A|-----------------------------------------------------------------|
 E|-----------------------------------------------------------------|
                   
                        p.m......
 e|-----------------------------------------------------------------|
 B|-----------------------------------------------------------------|
 G|-----------------------------7-9b11r9---14-12----12h14r12----14--|
 D|-12----------------------7-9------------------14----------14-----|
 A|----14-12-10-12-10-7---9-----------------------------------------|
 E|-----------------------------------------------------------------|


 e|-----------------------------------------------------------------|
 B|-------------------------------12-------12-------12--------------|
 G|-12----12h14r12----12-14-14b16----14b16----14b16----14-13-----9~-|
 D|----14----------14-----------------------------------------------|
 A|-----------------------------------------------------------------|
 E|-----------------------------------------------------------------|

 e|-----------------------------------------------------------------|
 B|-----------------------------------------------------------------|
 G|-9~-9~-10~-10~-10~-9~--------------------------------------------|
 D|-----------------------------------------------------------------|
 A|-----------------------------------------------------------------|
 E|-----------------------------------------------------------------|

           Any Q's or C's contact me at Convert123@aol.com
[ Tab from: http://www.guitartabs.cc/tabs/s/sublime/date_rape_tab_ver_5.html ]
Comments