Sublime - Date Rape Chords & Tabs

 

Date Rape Chords & Tabs

Sublime Chords & Tabs

Version: 3 Type: Tab 0 ratings
1 star 2 stars 3 stars 4 stars 5 stars
comments

Date Rape Tab

   
#----------------------------------PLEASE NOTE---------------------------------#
#This file is the author's own work and represents their interpretation of the #
#song. You may only use this file for private study, scholarship, or research. #
#------------------------------------------------------------------------------##
Sublime: Date Rape



intro:

    E     F   E     E      F     E     A        A#      A
|------------------------------------------------------------|
|-9-9-9-10-10-9---9-9-9-10-10-10-9---14-14-14-15-15-15-14----|
|-9-9-9-10-10-9---9-9-9-10-10-10-9---14-14-14-15-15-15-14----|
|-9-9-9-10-10-9---9-9-9-10-10-10-9---14-14-14-15-15-15-14----|
|-7-7-7--8--8-7---7-7-7--8--8--8-7---12-12-14-13-13-13-12----|
|------------------------------------------------------------|
    E      F     E    G  F# F E
|-----------------------------------|
|-9-9-9-10-10-10-9----12-11-10-9----|
|-9-9-9-10-10-10-9----12-11-10-9----|
|-9-9-9-10-10-10-9----12-11-10-9----|
|-7-7-7--8--8--8-7----10--9--8-7----|
|-----------------------------------|


solo:

|---------------|
|---------------|
|-9-12-14p12----|
|---------------|
|---------------|
|---------------|
[ Tab from: http://www.guitartabs.cc/tabs/s/sublime/date_rape_tab_ver_3.html ]
|-------------------------------------------------------|
|-------12----------------------------------------------|
|-14b16----14p12----12h14-12----12----------------------|
|----------------14----------14----14-------------------|
|-------------------------------------14-12-10-12-10----|
|-------------------------------------------------------|

|----------------------------------------------------------------|
|----------------------------------------------------------------|
|---------------7-9-14-12-12h14p12----12----14p12----14p12-------|
|-----------7-9--------------------14----14-------14-------14----|
|-7-7-10-10------------------------------------------------------|
|----------------------------------------------------------------|

|-------------------------------------------------------------------------------|
|----------------------------12-------12-------12-------12-------12-------12----|
|-14p12----14p12----12-14b16----14b16----14b16----14b16----14b16----14b16-------|
|-------14-------14-------------------------------------------------------------|
|-------------------------------------------------------------------------------|
|-------------------------------------------------------------------------------|

|------------------------------------------------------------------|
|------------------------------------------------------------------|
|-14b16-12----14p12----14-12h14p12----12-------9-9-9-10-10-10-9----|
|----------14-------14-------------14----14-13---------------------|
|------------------------------------------------------------------|
|------------------------------------------------------------------|


break
repeat last four lines

Em, B, C, G progression for rest of song
Comments