Sublime - Date Rape Chords & Tabs

 

Date Rape Chords & Tabs

Sublime Chords & Tabs

Version: 1 Type: Tab 0 ratings
1 star 2 stars 3 stars 4 stars 5 stars
comments

Date Rape Tab

DATE RAPE - Sublime 
 
intro- tabbed out for guitar instead of horns 
|-----------------|-----------------|----------------|------------------------ 
|-----------------|-----------------|----------------|------------------------ 
|-----------------|-----------------|----------------|------------------------ 
|-----------------|-----------------|----------------|------------------------ 
|-----------------|-----------------|-0-0-0-1-1-1-0--|------------------------ 
|-0-0-0-1-1-1-0---|-0-0-0-1-1-1-0---|----------------|-0-0-0-1-1-1-0---------- 

--------------| 
--4---3---2---| 
--4---3---2---| 
--4---3---2---| 
--------------| 
--------------| 

main verse: 
then play four measures of this Em 
---7--- 
---6--- 
---9--- 
---9--- 
---7--- 
------- 
then play two measures of this A 
---5--- 
---5--- 
---6--- 
---7--- 
---7--- 
then play one measure of this B 
---7--- 
---7--- 
---8--- 
---9--- 
---9--- 
---7--- 
then play two beats of this C 
---8--- 
---8--- 
---9--- 
---10-- 
---10-- 
---8--- 
and two beats of B 
---7--- 
---7--- 
---8--- 
---9--- 
---9--- 
---7--- 
then repeat main verse 

-------------- 
then at 0:37 in the song, it changes 
the chord pattern is this (using previous chords) 
FOUR MEASURES OF: E 
TWO MEASURES OF: B 
TWO MEASURES OF: A 
THEN REPEAT AGAIN
 

then at 0:53 in the song you play this 
two beats of C 
two beats of B 
one measure of Em 
then repeat 
-------------- 
then at 1:00 play this 
four measures of: Em on the 2nd and 4th beat 
-------------- 
then at 1:04 play this: 
Quarter note of B 
Quarter note of C 
Quarter note of this G: 
---3--- 
---3--- 
---4--- 
---5--- 
---5--- 
---3--- 

then at 1:07 play this: 
a measure of this D 
---5--- 
---5--- 
---5--- 
---7--- 
---7--- 
---5--- 

and one measure of B 
and two of B on the downstroke 
----------------- 
then at 1:13 play this: 
one beat of Em 
one beat of B 
one beat of C 
one beat of A 
do that total of 4x 
 
then at 1:17 play this 
whole note of: B 
quarter note of C 
whole note of B 
quarter note of C 
whole note of B 
quarter note of C 
quarter note of B 

 SOLO 
e|---------------------------------------------*---------------------| 
B|---------------------------------------------*---------------------| 
G|---------------------------------------------*-[9]---[12]--[14]p12-| 
D|---------------------------------------------*---------------------| 
A|---------------------------------------------*---------------------| 
E|---------------------------------------------*---------------------| 
[ Tab from: http://www.guitartabs.cc/tabs/s/sublime/date_rape_tab.html ]
  * music starts here 
e|------------------------------------------------------------| 
B|------12----------------------------------------------------| 
G|-14b16---14p12----12h14-12----12----------------------------| 
D|--------------14-----------14----14--[12]-------------------| 
A|-------------------------------------------14-12-10-12-10---| 
E|------------------------------------------------------------| 
  
 pm.................. 
e|--------------------------------------------------------------------| 
B|--------------------------------------------------------------------| 
G|-------------------7-[9]---14---12--12h14p12----12---14p12--14p12---| 
D|--------------7--9---------------------------14----14-----14--------| 
A|--7---7-10-10-------------------------------------------------------| 
E|--------------------------------------------------------------------| 

e|--------------------------------------------------------------------| 
B|--------------------------12------12-----12-----12-----12-----12----| 
G|----14p12--14p12---12-14b16--14b16--14b16--14b16--14b16--14b16------| 
D|--14-----14-----14--------------------------------------------------| 
A|--------------------------------------------------------------------| 
E|--------------------------------------------------------------------| 
    rapid bending here 
e|--------------------------------------------------------------------| 
B|--------------------------------------------------------------------| 
G|-[14]b16-12--14p12---14-12h14p12--12-------[9][9][9][10][10][10][9]-| 
D|-----------14-----14------------14---14-13--------------------------| 
A|--------------------------------------------------------------------| 
E|--------------------------------------------------------------------|
then at 1:42 play this: 

tabbed out for guitar instead of horns 
|-----------------|-----------------|----------------|------------------------ 
|-----------------|-----------------|----------------|------------------------ 
|-----------------|-----------------|----------------|------------------------ 
|-----------------|-----------------|----------------|------------------------ 
|-----------------|-----------------|-0-0-0-1-1-1-0--|------------------------ 
|-0-0-0-1-1-1-0---|-0-0-0-1-1-1-0---|----------------|-0-0-0-1-1-1-0---------- 

--------------| 
--4---3---2---| 
--4---3---2---| 
--4---3---2---| 
--------------| 
--------------| 

then at 1:58 play this 

FOUR MEASURES OF: E 
TWO MEASURES OF: A 
ONE MEASURE OF: B 
TWO BEATS OF: C 
TWO BEATS OF: B 
--------------- 
(she picked up a rock....) 
--------------- 
then at 2:11 play this 
4 measures of Em 
2 measures of B 
2 Measures of A 
--------------- 
After play this 
4 measures of Em 
2 measures of B 
2 beats of c 
2 beats of b 
one measure of Em 
2 beats of c 
2 beats of b 
2 measures of Em 
 
(...one night is was getting late...) 
Em the same way Brad does it! 
--------------- 
then play this at 2:37 
one measure of B 
one measure of C 
one measure of G 
one measure of D 
than go wild on D like Brad does 
--------------- 
then at 2:44 play this: 
Quarter notes of Em on the 2nd anf 4th beat 
--------------- 
then at 2:46 play this: 
one beat of Em 
one beat of B 
one beat of C 
one beat of A 

do that total of 4x 
---------------- 
then at 2:51 play this: 
whole note of: B 
quarter note of C 
whole note of B 
quarter note of C 
whole note of B 
quarter note of C 
quarter note of B 
---------------- 
then at 3:00 play this 
one beat of Em 
one beat of B 
one beat of C 
one beat of A 

do that total of 4x 
---------------- 
then at 3:05 play this 
whole note of: B 
quarter note of C 
whole note of B 
quarter note of C 
whole note of B 
quarter note of C 
quarter note of B 
---------------- 
they yell DATE RAPE and the horns solo starts 
and play 
one measure of Em 
one measure of B 
one measure of C 
one measure of G 

and then repeat it 
then when he is saying nah, nah, nah, nah, nah, nah...... 
play this 
one measure of Em 
one measure of B 
one measure of C 
one measure of G 
and then repeat it 
she didn't want to..... 
play this 
one beat of Em 
one beat of B 
one beat of C 
one beat of A 
do total of 4 times 

Comments