Sublime - Date Rape Chords & Tabs

 

Date Rape Chords & Tabs

Sublime Chords & Tabs

Version: 1 Type: Chords 0 ratings
1 star 2 stars 3 stars 4 stars 5 stars
comments

Date Rape Chords

   
#----------------------------------PLEASE NOTE---------------------------------#
#This file is the author's own work and represents their interpretation of the #
#song. You may only use this file for private study, scholarship, or research. #
#------------------------------------------------------------------------------#
Sublime - Date Rape
intro
   
    E      F       E           F       E    A        A#       A
E|-------------------------------------------------------------------|
B|--9-9-9-10-10-10-9----9-9-9-10-10-10-9----14-14-14-15-15-15-14-----|
G|--9-9-9-10-10-10-9----9-9-9-10-10-10-9----14-14-14-15-15-15-14-----|
D|--9-9-9-10-10-10-9----9-9-9-10-10-10-9----14-14-14-15-15-15-14-----|
A|--7-7-7--8--8--8-7----7-7-7--8--8--8-7----12-12-12-13-13-13-12-----|
E|-------------------------------------------------------------------|
    E      F       A     G  F#  F   E
E|-----------------------------------------|
B|--9-9-9-10-10-10-9----12--11--10--9------|
G|--9-9-9-10-10-10-9----12--11--10--9------|
D|--9-9-9-10-10-10-9----12--11--10--9------|
A|--7-7-7--8--8--8-7----10---9---8--7------|
E|-----------------------------------------|

(Plays A Em B C G progression till end)
[ Tab from: http://www.guitartabs.cc/tabs/s/sublime/date_rape_crd.html ]
Comments