Sublime - Caress Me Down Chords & Tabs

 

Caress Me Down Chords & Tabs

Sublime Chords & Tabs

Version: 4 Type: Tab 0 ratings
1 star 2 stars 3 stars 4 stars 5 stars
comments

Caress Me Down Tab

Don't blame me if it sucks, but i got this while 
screwing around, and it started to sound familiar.
It could actually be a bass tab, but it sounds just as good on a guitar.
E-mail me @ RCT2head@hotmail.com with comments and stuff.

Sublime
Caress Me Down
Intro

|-----------------------------|
|-----------------------------|
|-----------------------------|
|-----------------------------|
|--------------------------4-3|
|3-4-4-4--3-4-4-4--3-4-4-4----|
[ Tab from: http://www.guitartabs.cc/tabs/s/sublime/caress_me_down_tab_ver_4.html ]
|-----------------------------|
|-----------------------------|
|-----------------------------|
|-----------------------------|
|--------------------------4-3|
|3-4-4-4--3-4-4-4--3-4-4-4----|

|-----------------------------|
|-----------------------------|
|-----------------------------|
|-----------------------------|
|--------------------------4-3|
|3-4-4-4--3-4-4-4--3-4-4-4----|

|----------------------|
|----------------------|
|----------------------| play these next notes separated,
|----------------------| like it is in the song.
|5-5-5--6-5--5-5-5--4-5|
|3-3-3--4-3--3-3-3--2-3|
Comments