Sublime - Caress Me Down Chords & Tabs

 

Caress Me Down Chords & Tabs

Sublime Chords & Tabs

Version: 3 Type: Tab 0 ratings
1 star 2 stars 3 stars 4 stars 5 stars
comments

Caress Me Down Tab

Tabbed by: viva_sublime (chris melendez)
Artist:Sublime
Song:Caress Me Down
Album:Sublime
Tuning:Standard Tuning

|--------------------------------|
|--------------------------------|
|--------------------------------|
|--------------------------------|     x3 times
|---------5-4------5-4------5-4--|
|---4-555-----4-555----4-555-----|


|--------------------------------|
|--------------------------------|
|------7--------9----------------|
|-77-7-7-7-77-7-9-7--------------|
|-77-7-5-7-77-7-7-7--------------|
|-55-5---5-55-5---5--------------|

|--------------------------------|
|--------------------------------|
|-------7--7--------9--9---------|
|-7--7--7--7--7--7--9--9---------|      repeat this throughout whole
|-7--7--5--5--7--7--7--7---------|      song in a slow ska rythm
|-5--5--------5--5---------------|

[ Tab from: http://www.guitartabs.cc/tabs/s/sublime/caress_me_down_tab_ver_3.html ]
|--------------------------------|
|--------------------------------|
|--------------------------------|
|--------------------------------|     x3 times
|---------5-4------5-4------5-4--|
|---4-555-----4-555----4-555-----|

|--------------------------------|
|--------------------------------|
|------7--------9----------------|
|-77-7-7-7-77-7-9-7--------------|
|-77-7-5-7-77-7-7-7--------------|
|-55-5---5-55-5---5--------------|

|--------------------------------|
|--------------------------------|
|-------7--7--------9--9---------|
|-7--7--7--7--7--7--9--9---------|  
|-7--7--5--5--7--7--7--7---------| 
|-5--5--------5--5---------------|



THE END 
long live sublime and everything they stood for.  This is for all those real
sublime fans who still represent the L.B.C. much love to all. peace if you have
any comments or questions e-mail me at doobie_boobie_dookie@hotmail.com
Comments