Sublime - Caress Me Down Chords & Tabs

 

Caress Me Down Chords & Tabs

Sublime Chords & Tabs

Version: 2 Type: Bass Tab 0 ratings
1 star 2 stars 3 stars 4 stars 5 stars
comments

Caress Me Down Bass Tab

Sublime - Caress Me Down

Intro/Bridge:

A --------------------------5---4-----
E --4-4-5-5-4-4-5-5-4-4-5-5-----------

Pre-Verse/Outro:
[ Tab from: http://www.guitartabs.cc/tabs/s/sublime/caress_me_down_btab_ver_2.html ]
A --------------5------------------7-----
E --5---5---5-----5---5---5---5-------5--

Verse/Chorus:

A ------------------5---5-------------
E --4-4-5-5-4-4-5-5---------5---5-----

A ------------------7---7-------------
E --4-4-5-5-4-4-5-5---------5---5-----


Tabbed by: Ham G
Comments