Sublime - Burritos Chords & Tabs

 

Burritos Chords & Tabs

Sublime Chords & Tabs

Version: 1 Type: Tab 1 rating
1 star 2 stars 3 stars 4 stars 5 stars
comments

Burritos Tab

   
#----------------------------------PLEASE NOTE---------------------------------#
#This file is the author's own work and represents their interpretation of the #
#song. You may only use this file for private study, scholarship, or research. #
#------------------------------------------------------------------------------#

Artist: Sublime
Title: Burritos
Album: Sublime

I think this is pretty much 100%, it took me a while.

Intro:

e|-----------------------------------------------------------|
B|-----------------------------------------------------------|
G|------------------------5---7------------------------------|
D|----------3---5-3--5/7-----------------------3---5---3-----|
A|--3h5---5----------------------------3---5---------------5-|
E|-----------------------------------------------------------|

e|----------------------------------------------------------|
B|------------------------6---------------------------------|
G|------------------5--7-----7p5---------5------------------|
D|--3---5--3--5/7-----------------5--5h7---53-----3---3-5/7-|
A|---------------------------------------------3h5---5------|
E|----------------------------------------------------------|

e|------------------------------------------------------|
B|------------------------------------------------------|
G|-5--7------------5--7--7-7p5---5------------52/11-----|
D|-------5h7--7--7-------------7----------7-------------|
A|------------------------------------------------------|
E|------------------------------------------------------|

e|--10-------------------------------------------------------|
B|------13--10-----------------------------------------------|
G|-------------12b(14)r12p10---------------------------------|
D|--------------------------12-10h12-------10----------------|
A|-----------------------------------10h12-----108----------|
E|--------------------------------------------------10-8h10-8|

e|-----------------------------------------------------------------|
B|-----------------------------------------------------------------|
G|---------10----10---10---10--12v~~~~~~~12------------------------|
D|---------10--------------------------------17---0--10---10--12---|
A|--10/12-----12---------------------------------------------------|
E|-----------------------------------------------------------------|

e|------------------------------------------------------|
B|------------------------------------------------------|
G|------------------------------------------------------|
D|-----------3----3----3----3---5--5--5--5--3h5---5/7---|
A|------------------------------------------------------|
E|--(3)--5----------------------------------------------|

e|--------------------------------------------------------------|
B|--------------------------------------------------------------|
G|------------15---14v~~~-14h1512-12-10-12-9h10-----------------|
D|--10---12--------------------------------------12h14-12p10-12-|
A|--------------------------------------------------------------|
E|--------------------------------------------------------------|

e|--------------------------------------------------------------------|
B|--------------------------------------------------------------------|
G|-----12h14p12p10-12-10----------------------------------------------|
D|------------------------14-12h14b(15)r--12p11v~~12-12/14-12-12-11-11|
A|--------------------------------------------------------------------|
E|--11----------------------------------------------------------------|



Verse:

D           
e|--------------------------------------------------------------------|
B|--10--12b(14)r--10v--10h11p10---------------------------------------|
G|-------------------------------12b(13)r-9-12-9h10-------------------|
D|--------------------------------------------------12-12532--0-0-0|
A|--------------------------------------------------------------------|
E|--------------------------------------------------------------------|


Chorus:

A                     

e|--13b(15)r-10h13p10----10------------------------------------------|
B|--------------------13----13b(15)-13b(15)-13-10--------------------|
G|------------------------------------------------12b(14)r12p10----10|
D|--------------------------------------------------------------12---|
A|-------------------------------------------------------------------|
E|-------------------------------------------------------------------|

e|--------------------------------------------------10-----------10--|
B|-----------------------------*-------------------------------------|
G|--------------------10----10-12b(14)v--pb(14)r12v-----12b(15)r-----|
D|--12-------10h11h12----12------------------------------------------|
A|-----10h12---------------------------------------------------------|
E|-------------------------------------------------------------------|

e|---------------------------------------------------------------|
B|-----------------------------------*---*---*---*---*---*-------|
G|--12b(13)r---12b(13)r---12b(13)r---12--12--12--12--12--12------|
D|---------------------------------------------------------------|
A|---------------------------------------------------------------|
E|---------------------------------------------------------------|
[ Tab from: http://www.guitartabs.cc/tabs/s/sublime/burritos_tab.html ]
  Chorus starts here
e|----------------------------------------------------------------|
B|--*---*---*---*---*---------------------------------------------|
G|--12--12--12--12--12--10-12-10h12p10----10----10-12p10-10-12p10-|
D|-------------------------------------12----12-------------------|
A|----------------------------------------------------------------|
E|----------------------------------------------------------------|

e|--------------------------------------------15----13---12h13----|
B|---------------------------13-----13/15v------------------------|
G|--10-12p10--10--10---12/14-----14-------------------------------|
D|----------------------------------------------------------------|
A|----------------------------------------------------------------|
E|----------------------------------------------------------------|
                              Chorus ends here
e|--12-13----12-------*---------------------------------------------|
B|--------15----13h15-13v-------------------------------------------|
G|---------------------------12---10-------------------------10v--12|
D|------------------------------------12--10---------10--12---------|
A|--------------------------------------------10h12-----------------|
E|------------------------------------------------------------------|

e|-------------10-------------------------------------------------|
B|----------------13-10-------------------------------------------|
G|--12b(14)r------------12-10-----10------------------------------|
D|----------------------------h12----12-10h12p10------10----------|
A|-----------------------------------------------12------12-------|
E|-------------------------------------------------------------13-|

e|------------------------------------------------------------------|
B|------------------------------------------------------------------|
G|--------------------------------10-10----10--10^----10^-10^----10^|
D|--------------------------10----------12-10------12---------12----|
A|-----------------8--10/12----12-----------------------------------|
E|--10-10b(11)r-----------------------------------------------------|

e|-----------------------------------------|
B|-----------------------------10---10h12--|
G|-----10-10----10-10----10----10----------|
D|--12-------12-------12----12-------------|
A|-----------------------------------------|
E|-----------------------------------------|


Verse 3:
I don't 
Outro (slower):

e|-----------------------7------------------------------------|
B|--7---------7--------------6--------------------------------|
G|--7-------------------------------7-------------------------|
D|--7---7----------75---------------------------0-0-0-0-0-0--|
A|--5---------------------------------------------------------|
E|------------------------------------------------------------|

e|--------------------------5-----------------------------------|
B|-----------------------6------------------------------------5-|
G|-----------------------------5-----------------------5--------|
D|--0-----0------0----------------7----7p5----------------------|
A|-------------------------------------------5-6-7-8------------|
E|--------------------------------------------------------------|

e|-------------------------------------------------------------|
B|-------------------------------7b----------------------------|
G|--7b(11)r--------7b(10)r---7v--7b(10)--7b(10)---7-7b(9)----7-|
D|-------------------------------------------------------------|
A|-------------------------------------------------------------|
E|-------------------------------------------------------------|

e|---------------------------------------------------------------|
B|---------------------------------------------------12v-15v--17-|
G|--7b(10)r7b(10)b(11)---7b(11)v---7b(12)----11v/13v-------------|
D|---------------------------------------------------------------|
A|---------------------------------------------------------------|
E|---------------------------------------------------------------|

e|-----------------------------------------------------------------|
B|-----------------------------------17b---------------------------|
G|--17-17b(20)--17b(21)--17b(21)--17-17b(21)r-15v--17b(19)-17b(20)-|
D|-----------------------------------------------------------------|
A|-----------------------------------------------------------------|
E|-----------------------------------------------------------------|

e|------------------------------------------------------18--18--------|
B|---------------17---------------------------------16----------15----|
G|--17b(20)r--17----17p16-----------0----0------15------------------15|
D|------------------------17v---------17------------------------------|
A|--------------------------------------------------------------------|
E|--------------------------------------------------------------------|

e|--16---------------------------------------|
B|-------------------------------------------|
G|------15-----------------------------------|
D|----------0--------------------------------|
A|--------------7h9---------7v---9----7b(9)--|
E|-------------------------------------------|

Then it just kinda fades out

Hope that helps any other Sublime fans out there
It's 4:20am and I'm gonna pass out


Key:
/ = slide
h = hammer
p = pulloff
b() = bend to pitch
r = release bend
^ = quarter bend
v = vibrato
* = pinched harmonic
Comments