Sublime - Burritos Chords & Tabs

 

Burritos Chords & Tabs

Sublime Chords & Tabs

Version: 2 Type: Bass Tab 0 ratings
1 star 2 stars 3 stars 4 stars 5 stars
comments

Burritos Bass Tab

   
Burritos: By Sublime
transcribed by Scott Peterson (skpeters@ucsd.edu)
Bassist: Eric Wilson (God of Thunder)

riff 1:
D        F       A#              D       F       C  
-------------------------------------------------------------------
-------------------------------------------------------------------
-5-5-5-5-8-8-8-8-----------------5-5-5-5-8-8-8-8-----10-10-7-7-----
-----------------6-6-6-6-6-6-6-6-----------------8-8-----------8-8-
D        F       A#              D       F        A#   D#
-------------------------------------------------------------------
-------------------------------------------------------------------
-5-5-5-5-8-8-8-8-----------------5-5-5-5-8-8-8-8-------6-6---------
-----------------6-6-6-6-6-6-6-6------------------6-6--------------

riff 2:
G            A#  A
-------------------------------------------------------------------
-------------------------------------------------------------------
----------------------(7-7-7-7)-----------------------(7-7-7-7)----
---3-3-3-3-3-6-6-5-5-5-5-5-5-5-5-3-3-3-3-3-3-6-6-5-5-5-5-5-5-5-5---
[ Tab from: http://www.guitartabs.cc/tabs/s/sublime/burritos_btab_ver_2.html ]
riff 3:
-------------------------------------------------------------------
-------------------------------------------------------------------
-5-5-5-5-8-8-8-8-----------------5-5-5-5-8-8-8-8-------6-6---------
-----------------6-6-6-6-6-6-6-6------------------6-6--------------

-------------------------------------------------------------------
-------------------------------------------------------------------
-5-5-5-5-8-8-8-8---------6-6-6-6-5-5-5-5-8-8-8-8---------6-6-6-6---
-----------------6-6-6-6-------------------------6-6-6-6-----------

riff 4:
A             D
-------------------------------------------------------------------
----------------4-7---4-7-----------------4-7---4-7----------------
---4-7---4-7--5-----5--------4-7---4-7--5-----5--------4-7---4-7---
-5-----5-------------------5-----5-------------------5-----5-------

-------------------------------------------------------------------
---4-7---4-7-------------------------------------------------------
-5-----5---------4-7---4-7--5-5--4-4-------------------------------
---------------5-----5---------------------------------------------

ending: (repeat for a while)
-----5h7-5h7--5---------
-----------------7-5-3--
-5--5-------------------
------------------------

riff1
riff2
riff3
riff4
riff1
riff2
riff3
riff4 X 2
riff1
riff2
riff3
riff4 X 2
riff1
riff2
riff3
riff4 X 2
ending

Comments