Sublime - Ballad Of Johnny Butt Chords & Tabs

 

Ballad Of Johnny Butt Chords & Tabs

Sublime Chords & Tabs

Version: 1 Type: Bass Tab 0 ratings
1 star 2 stars 3 stars 4 stars 5 stars
comments

Ballad Of Johnny Butt Bass Tab

   
The Ballad of Johnny Butt
Sublime
Tabbed by Pablo Vadillo

**********************
Tablature Explanation
b-bend
/-slide
**********************

Drums intro
Verse
G.------------------------------------------------
D.------------------------------------------------
A.----6b7-0--------=6b7-0---7/8-8----8-8-7b--2b3b2
E.5-------------5-5-------------------------------
[ Tab from: http://www.guitartabs.cc/tabs/s/sublime/ballad_of_johnny_butt_btab.html ]
G.-------------------------------------------------
D.-------------------------------------------9b10-9
A.----6b7-0--------=6b7-0---7/8-8----8-8-7b--------
E.5-------------5-5--------------------------------

Chorus("we've got.."')
G.----------------------------------
D.-----5b7-7-5----------------------
A.---7---------7-8-8-0-8-8-8/1------
E.5----------------------------1/5--

Ending
G.--
D.-7
A.-7 let ring...
E.-5

any corrections e-mail me at pvadillo25@attbi.com
Comments