Sublime - Badfish Solo Chords & Tabs

 

Badfish Solo Chords & Tabs

Sublime Chords & Tabs

Version: 1 Type: Tab 0 ratings
1 star 2 stars 3 stars 4 stars 5 stars
comments

Badfish Solo Tab

   
#----------------------------------PLEASE NOTE---------------------------------#
#This file is the author's own work and represents their interpretation of the #
#song. You may only use this file for private study, scholarship, or research. #
#------------------------------------------------------------------------------##


The verse is just A(V), B(VII), and G(III)
[ Tab from: http://www.guitartabs.cc/tabs/s/sublime/badfish_solo_tab.html ]
|------------------------------------------|
|------------------------------------------|
|-4-4-4b6r4-----2-4-1h2p1------------------|
|-----------2h4-----------2S4S2------------|
|-------------------------------2p0-2h4----|
|------------------------------------------|

|---------------------5----------------|
|-----------------------7--------------|
|-----------2p1-----------6-4-2h4-2----|
|---2h4-4-2-----2-2S4------------------|
|-4------------------------------------|
|--------------------------------------|


Tablature Legend
----------------
 h   - hammer-on
 p   - pull-off
 b   - bend
 r   - bend release
 /\  - slide
Comments