Sublime - Badfish Chords & Tabs

 

Badfish Chords & Tabs

Sublime Chords & Tabs

Version: 1 Type: Bass Tab 0 ratings
1 star 2 stars 3 stars 4 stars 5 stars
comments

Badfish Bass Tab

Badfish, by Sublime
Album: 40 oz to freedom
Tabbed by: Grizam213@hotmail.com(questions/comments?)

(There is another tab posted, but this is what I hear when I play it.)
Verse 1:

G:------------------------------------|
D:-------7-6-9-7-6-7-------9-11-12\\\-|
A:-----7------------------------------|
E:-5-5----------------7--7------------|


Verse 2: (something close to this)
[ Tab from: http://www.guitartabs.cc/tabs/s/sublime/badfish_btab.html ]
G:---------------------------------|
D:----55------55------77-----------|
A:-----------------------------77--|
E:-3-3--3--3-3--3--5-5--5--5-5---5-|


Chorus:

G:-------------------------------------|
D:-------------------------------------|
A:-------------5-555-5-555-------------|
E:-5-555-5-555-------------3-333-3-333-|

				*last note*
G:-------------------------|    |------|
D:-------------------------| x3 |------|
A:-------------5-555-5-555-|    |---7--|
E:-5-555-5-555-------------|    |------|

*Listen to song to get timing*

Comments