Sublime - Bad Fish Chords & Tabs

 

Bad Fish Chords & Tabs

Sublime Chords & Tabs

Version: 5 Type: Tab 0 ratings
1 star 2 stars 3 stars 4 stars 5 stars
comments

Bad Fish Tab

Hey people! This is my tab of the Bad Fish Solo. All the other ones i've seen R crap, 
so I decided to make my own. This is the right way 2 play it! I'm 99% sure.
Transcribed by: Bob of Las Vegas, NV
E-mail: TheCheeseBob@aol.com
(remember to view this in courier)
[ Tab from: http://www.guitartabs.cc/tabs/s/sublime/bad_fish_tab_ver_5.html ]
|-------------------------------------|
|-------------------------------------|             
|4h6-6b-6br4-----2-4---1h2p1----------|
|------------2h4-----2-------4-2------|   
|--------------------------------0-2h4|
|-------------------------------------|

|----------------------5-2------------|
|--------------------------2-0-----2/-|
|------------2-2/1-------------2h4-2/-|
|----2-4-4p2-------2/4-------------2/-|
|2h4----------------------------------|
|-------------------------------------|

I'll let all you good guitarists out there figure out the rhythm for urselves.
Comments