Sublime - Bad Fish Chords & Tabs

 

Bad Fish Chords & Tabs

Sublime Chords & Tabs

Version: 3 Type: Tab 0 ratings
1 star 2 stars 3 stars 4 stars 5 stars
comments

Bad Fish Tab

   
Heres Sublimes "Bad Fish",u wanna play it by finger strumming,it sounds better then with 
a pick.
[ Tab from: http://www.guitartabs.cc/tabs/s/sublime/bad_fish_tab_ver_3.html ]
listen to the song to get the strumming down.    -solo-
-----------------------|-----------------------------------
-2------4-----0------2-|-2---2-----------------------------
-2------4-----5------2-|--------4--2r--2-3------------------
-2------4-----5------2-|-------------------2-3---2\3-3\2----
-0------2-----5------2-|--------------------------------2/3-
--------------3--------|------------------------------------
 9x     8x    8x  strum last chord once and slowly

-solo continued-                r=rest/ring
------------------5-2--------------
-----------------------4-2---------
---------------------------3-2-4r--
---2/3-2-4-3-----------------------
-2-----------2/3-------------------
-----------------------------------
for the verses,all you do is strum the chords in a ska manner.
Wich is strum quickly and mute it so it has a jamaican style to it.Any questions? email me 
at slawg_69@yahoo.com
Comments