Sublime - Bad Fish Chords & Tabs

 

Bad Fish Chords & Tabs

Sublime Chords & Tabs

Version: 1 Type: Tab 1 rating
1 star 2 stars 3 stars 4 stars 5 stars
comments

Bad Fish Tab

   
#----------------------------------PLEASE NOTE---------------------------------#
#This file is the author's own work and represents their interpretation of the #
#song. You may only use this file for private study, scholarship, or research. #
#------------------------------------------------------------------------------#
#

Date: Sat, 8 Nov 1997 03:22:36 -0800
From: MEYHAIM31 
To: guitar@olga.net
Subject: news, i.e. Tab: Bad Fish

Author: Sublime
Title: Bad Fish
Album: MOM  Music For Our Mother Ocean
TAB by: Bobby Mills of Moreno Valley, CA
Email in care of Bobby Mills: meyheim31@prodigy.net             .

****************************SUBLIME****************************
 
Play the intro. in a rhythm type manner:

  A                        Bb7                  Gb
-|-----------------------|--------------------|-----------------
-|2--2--2-2--2--2-2-2-(2)|-4--4-4-4--4-4-4-4-4|-----------------
-|2--2--2-2--2--2-2-2-(2)|-4--4-4-4--4-4-4-4-4|-5--5-5-5--5-5-5-
-|2--2--2-2--2--2-2-2-(2)|-4--4-4-4--4-4-4-4-4|-5--5-5-5--5-5-5-
-|0--0--0-0--0--0-0-0--0-|-2--2-2-2--2-2-2-2-2|-5--5-5-5--5-5-5-
-|-----------------------|--------------------|-3--3-3-3--3-3-3-
[ Tab from: http://www.guitartabs.cc/tabs/s/sublime/bad_fish_tab.html ]
          A                     A                      Bb7
------|----------------------|-----------------------|----------
------|-2--2--2-2--2-2-2-2-2-|-2--2--2-2--2--2-2-2-2-|-4--4-4-4-
5-5-5-|-2--2--2-2--2-2-2-2-2-|-2--2--2-2--2--2-2-2-2-|-4--4-4-4-
5-5-5-|-2--2--2-2--2-2-2-2-2-|-2--2--2-2--2--2-2-2-2-|-4--4-4-4-
5-5-5-|-0--0--0-0--0-3-0-3-0-|-0--0--0-0--0--0-0-0-0-|-2--2-2-2-
3-3-3-|----------------------|-----------------------|----------
                                  notice that part ^
                                 Gb                                        
     A
------------|-----------------------|---------------------------
--4-4-4-4-4-|-----------------------|-2-------------------------
--4-4-4-4-4-|-5--5-5-5--5-5-5-5-5-5-|-2-------------------------
--4-4-4-4-4-|-5--5-5-5--5-5-5-5-5-5-|-2-------------------------
--2-2-2-2-2-|-5--5-5-5--5-5-5-5-5-5-|-0-------------------------
------------|-3--3-3-3--3-3-3-3-3-3-|---------------------------
                                      let it ring

(play this next part using the same tab as shown above, but in a
 slow ska type manner instead of the rhythm style)

 

A                        Bb7                  Gb
-|-----------------------|--------------------|-----------------
-|2--2--2-2--2--2-2-2-(2)|-4--4-4-4--4-4-4-4-4|-----------------
-|2--2--2-2--2--2-2-2-(2)|-4--4-4-4--4-4-4-4-4|-5--5-5-5--5-5-5-
-|2--2--2-2--2--2-2-2-(2)|-4--4-4-4--4-4-4-4-4|-5--5-5-5--5-5-5-
-|0--0--0-0--0--0-0-0--0-|-2--2-2-2--2-2-2-2-2|-5--5-5-5--5-5-5-
-|-----------------------|--------------------|-3--3-3-3--3-3-3-

          A                                                
------|---------
------|-2-------
5-5-5-|-2-------     pause for 2 sec. Then go strait to solo |
5-5-5-|-2-------                                            \ /
5-5-5-|-0-------                                             .
3-3-3-|---------


  SOLO:       #: let ring   >: slide  ~: bend  ^: half bend

------------------------------------------|---------------------
--^-------~------^-----------------|----------------------------
--2---2---4----4-4--------2>4--2----------|----------4--2---~~~-
--------------------2>(4)--------3-2------|------2-4------3-2---
--------------------------------------2>3#|--2>3----------------
------------------------------------------|---------------------
                                            Notice those bends^

--5--2----------------------------------------------------------
-------3-2--2--#-#-#-#-----------------------------------------
------------2--#-#-#-#------------------------------------------
------------2--#-#-#-#------------------------------------------
------------0--#-#-#-#------------------------------------------
----------------------------------------------------------------
                     (Back to slow ska style play)

Well that's it.  I hope I helped out some of you sublime 
fans out there.  If you know how to play a song then you should
take the time to post it on this page.  If anyone has any comments
or questions feel free to e-mail me at the address on top of the
page.
~Bobby Mills~ 
Comments