Subhumans - Whats Yer Number Whats Yer Name Chords & Tabs

 

Whats Yer Number Whats Yer Name Chords & Tabs

Subhumans Chords & Tabs

Version: 1 Type: Tab 0 ratings
1 star 2 stars 3 stars 4 stars 5 stars
comments

Whats Yer Number Whats Yer Name Tab

   
-------------------------------------------------------------------------------
		What's yer number, what's yer name - Subhumans
-------------------------------------------------------------------------------



Tuning: standard e

e|---------------     /--------------     --------------     \     
B|---------------     |--------------     --------------     |     
G|--11-----11-9-- X 4 |-------------- X 4 -------------- X 4 |       
D|--11-----11-9--     |--4--------2--     --7--------5--     | X 2     
A|--9------9--7--     |--4--------2--     --7--------5--     |    
E|---------------     \--2--------0--     --5--------3--     /  
     
    1  2  3  4           1  2  3  4         1  2  3  4

e|------------------------------     ----------------------------------------|
B|------------------------------     ----------------------------------------|
G|-11-10-9---------------------- X 4 -12h14-12-12-14p12-16-14-12-12-14p12-14-|
D|---------11-10-9-11-10-9------     --------------------*-------------------|
A|-------------------------12p9-     ------------------bend------------------|
E|------------------------------     ----------------------------------------|       
[ Tab from: http://www.guitartabs.cc/tabs/s/subhumans/whats_yer_number_whats_yer_name_tab.html ]
e|-----------------------  --------------     --------------     
B|-----------------------  --------------     --------------     
G|-12-12-14p12-16-14-12--  --11-------9-- X 4 -------------- X 4 
D|--------------*--------  --11-------9--     --4--------2--     
A|------------bend-------  --9--------7--     --4--------2--     
E|-----------------------  --------------     --2--------0--     
 
  ...transition imperious...                 
e|---------------------     ---------------------     -------------------
B|---------------------     ---------------------     -------------------
G|--------------------- X 4 --------------------- X 2 ------------------- X 2
D|--44444476-44444422--     --77775555-77779999--     -9999999999999999--
A|--44444476-44444422--     --77775555-77779999--     -9999999999999999--
E|--22222254-22222200--     --55553333-55557777--     -7777777777777777--
   
    1+2+3+4+ 1+2+3+4+         1+2+3+4+ 1+2+3+4+        1+2+3+4+1+2+3+4+

e|---------------------    ----------------------    --9999991412-99999977-
B|---------------------    --777777109-77777755--    --7777771210-77777755-
G|---------------------X 2 --6666669-8-66666644--X 2 ----------------------X2
D|--44444476-44444422--    ----------------------    ----------------------
A|--44444476-44444422--    ----------------------    ----------------------
E|--22222254-22222200--    ----------------------    ----------------------

                              1+2+3+4 + 1+2+3+4+         1+2+3+4 +  1+2+3+4+



   
| /  slide up
| \  slide down
| h  hammer-on
| p  pull-off
| ~  vibrato
| +  harmonic
| x  Mute note
===============================================================================
Comments