Subhumans - Walls Of Silence Chords & Tabs

 

Walls Of Silence Chords & Tabs

Subhumans Chords & Tabs

Version: 1 Type: Tab 0 ratings
1 star 2 stars 3 stars 4 stars 5 stars
comments

Walls Of Silence Tab




#-------------------------------PLEASE NOTE----------------------------------------#
#This file is the authors own work and represents their interpretation of the song.#
#       You may only use this file for private study,scholarship, or reseach       #
#----------------------------------------------------------------------------------#


This is the First tab I'm putting out.I've been looking for this song everywhere
but I couldnt find it.So I'm putting it up.Finally.



"Walls of Silence"
Tabs Written By the Subhumans
By adex420@sbcglobal.net




E:-------------------------------------------------------------------|
B:-------------------------------------------------------------------|
G:--6666-5555-4444-5555-6666-5555-4444-5555--------------------------|
D:--6666-5555-4444-5555-6666-5555-4444-5555--------------------------|      Verse
A:--4444-3333-2222-3333-4444-3333-2222-3333--------------------------|
E:-------------------------------------------------------------------|
  Distortion----------------------------...
[ Tab from: http://www.guitartabs.cc/tabs/s/subhumans/walls_of_silence_tab.html ]
E:-------------------------------------------------------------------|
B:-------------------------------------------------------------------|
G:--7-77-7-5-55-5-111111-9-111111-9----------------------------------|
D:--7-77-7-5-55-5-111111-9-111111-9----------------------------------|      Chorus
A:--5-55-5-3-33-3--9 9 9-7--9 9 9-7----------------------------------|
E:-------------------------------------------------------------------|


E:----------------------------------3-5----------3-5--------3-5~~~~~|
B:--11-22-33/--5555-4444-3333-4444-5---~-4-3-4-5----~---3-4-5-------|
G:------------------------------------------------------------------|
                  I use A Tremolo Bar: ~            ~          ~~~~~   
                                                                            Solo
E:--5---4---3---2---5---4---3---2-----------------------------------|
B:------------------------------------------------------------------|
G:------------------------------------------------------------------|


E:------------------------------------------------------------------|
B:------------------------------------------------------------------|
G:------------------------------------------------------------------|
D:--66-55-44-55-66-55-44-55-6---7-6---------------------------------|       End      
A:--44-33-22-33-44-33-22-33-4---5-4---------------------------------|
E:------------------------------------------------------------------|






Verse   4 x's
Verse   2 x's
Chorus  2 x's
Verse   2 X's
Vesre   2 x's
Chorus  2 x's
Solo
End
Comments