Subhumans - Walls Of Silence Chords & Tabs

 

Walls Of Silence Chords & Tabs

Subhumans Chords & Tabs

Version: 1 Type: Bass Tab 0 ratings
1 star 2 stars 3 stars 4 stars 5 stars
comments

Walls Of Silence Bass Tab

   
Tabbed by Jake Strange (aka: Scumfuc)
Email:  jakestrange@chaosmagic.com

Main Riff/Verses:
G|----------------------------------7-7-5-5-7-7-5-5--|
D|--7-7-7-77--6-6-6-66--5-5-5-55---------------------|
A|---------------------------------------------------|
E|---------------------------------------------------|
     (A)*      (G#)*      (G)*       (G#)*
*The notes/chords in parenthese is what the guitar plays.

[ Tab from: http://www.guitartabs.cc/tabs/s/subhumans/walls_of_silence_btab.html ]
Chorus:
G|----------------------------2----------|
D|-------------------4--2--4-----2--4----|
A|--5555555--3333333---------------------|
E|---------------------------------------|
     (D)*     (C)*      (F#)*

At the end, play this:
G|--9-9---8-8---7-7---8-8--|---9---|------------|
D|--7-7---6-6---5-5---6-6--|---7---|---8--7-----|
A|-------------------------|-------|------------|
E|-------------------------|-------|------------|

Play that 1st measure ???x, then the last 2 measures at the very end.
Comments