Subhumans - Religious Wars Chords & Tabs

 

Religious Wars Chords & Tabs

Subhumans Chords & Tabs

Version: 2 Type: Tab 0 ratings
1 star 2 stars 3 stars 4 stars 5 stars
comments

Religious Wars Tab

 INTRO
E|-----------------------------------------------|
B|-----------------------------------------------|
G|-----------------------------------------------|
D|-9------7-5-7-5-7-5-7-7--9------12-11-9-7-5-7--|
A|-9(16x)-7-5-7-5-7-5-7-7--9(16x)-12-11-9-7-5-7--|
E|-7------5-3-5-3-5-3-5-5--7------10-9--7-5-3-5--|

 Verse 1
E|-------------------------------------------------------|
B|-------------------------------------------------------|
G|-------------------------------------------------------|
D|-9------7-5-7-5-7-7--9------12-11-9-7-5-7--9------7-7--|
A|-9(16x)-7-5-7-5-7-7--9(16x)-12-11-9-7-5-7--9(24x)-7-7--|
E|-7------5-3-5-3-5-5--7------10-9--7-5-3-5--7------5-5--|

 Chorus
E|--------------------------------------------|
B|--------------------------------------------|
G|-7------9------7------9---------------------|
D|-7(16X)-9(16X)-7(16X)-9(16X)----------------|
A|-5------7------5------7---------------------|
E|--------------------------------------------|

E|-------------------------------------------|
B|-------------------------------------------|
G|-------------------------------------------|
D|-9------7-5-7-5-7-7--9------12-11-9-7-5-7--|
A|-9(16x)-7-5-7-5-7-7--9(16x)-12-11-9-7-5-7--|
E|-7------5-3-5-3-5-5--7------10-9--7-5-3-5--|

  Verse 2
E|-------------------------------------------------------|
B|-------------------------------------------------------|
G|-------------------------------------------------------|
D|-9------7-5-7-5-7-7--9------12-11-9-7-5-7--9------7-7--|
A|-9(16x)-7-5-7-5-7-7--9(16x)-12-11-9-7-5-7--9(24x)-7-7--|
E|-7------5-3-5-3-5-5--7------10-9--7-5-3-5--7------5-5--|
[ Tab from: http://www.guitartabs.cc/tabs/s/subhumans/religious_wars_tab_ver_2.html ]
 Chorus
E|--------------------------------------------|
B|--------------------------------------------|
G|-7------9------7------9---------------------|
D|-7(16X)-9(16X)-7(16X)-9(16X)----------------|
A|-5------7------5------7---------------------|
E|--------------------------------------------|

E|-------------------------------------------|
B|-------------------------------------------|
G|-------------------------------------------|
D|-9------7-5-7-5-7-7--9------12-11-9-7-5-7--|
A|-9(16x)-7-5-7-5-7-7--9(16x)-12-11-9-7-5-7--|
E|-7------5-3-5-3-5-5--7------10-9--7-5-3-5--|

SOLO (listen to song to learn how to play solo}
E|-3-2-0-3-2-0-3-2-0-3-2-0-3-2-0-3-2-0------|
B|------------------------------------------|
G|------------------------------------------|
D|------------------------------------------|
A|------------------------------------------|
E|------------------------------------------|

E|-3-2-0---------------------|
B|--------3-2-1-0------------|
G|---------------------------|
D|---------------------------|
A|---------------------------|
E|---------------------------|

E|-----------------------------------------|
B|---------9~(6X)-11~(6X)-9~(6X)-11~(6X)---|
G|-----------------------------------------|
D|-7-7-------------------------------------|
A|-7-7-------------------------------------|
E|-5-5-------------------------------------|

 Verse 3
E|---------------------------------------------------------------------|
B|---------------------------------------------------------------------|
G|-------------------------------------------                      -9--|
D|-9------7-7-7-7---------------------------- I THINK YOU MUTE THE -9--|
A|-9(32X)-7-7-7-7----------------------------                      -7--|
E|-7------5-5-5-5------------------------------------------------------|

 Chorus/End
E|--------------------------------------------|
B|--------------------------------------------|
G|-7------9------7------9-------------9-------|
D|-7(16X)-9(16X)-7(16X)-9(16X)--------9-------|
A|-5------7------5------7-------------7-------|
E|--------------------------------------------|
Comments