Subhumans - Religious Wars Chords & Tabs

 

Religious Wars Chords & Tabs

Subhumans Chords & Tabs

Version: 1 Type: Tab 0 ratings
1 star 2 stars 3 stars 4 stars 5 stars
comments

Religious Wars Tab

intro/verse: (play as much as needed)
e|--------------------------------------------------------------------
B|--------------------------------------------------------------------
G|--------------------------------------------------------------------
D|----/9------7--5--7--5-7-5----(-------------7-----------)----------
A|----/9(x12)-7--5--7--5-7-5----(or just hold-7--for verses)--------
E|----/7------5--3--5--3-5-3----(-------------5-----------)----------

e|--------------------------------------------------------------------
B|--------------------------------------------------------------------
G|-----------7--  66-44--22-------------------------------------------
D|-----9-----7(x4)66-44--22--5-4--------------------------------------
A|-----9(x8)-5--  44-22--00--5-4--------------------------------------
E|-----7---------------------3-2--------------------------------------

chorus:(play chords as long as needed)
e|--------------------------------------------------------------------
B|--------------------------------------------------------------------
G|------7-----9-----7------9------------------------------------------
D|------7-----9-----7------9------(pause)-----------------------------
A|------5-----7-----5------7------------------------------------------
E|--------------------------------------------------------------------

solo: follow first part of verse chords until the rapid chord changes in
2nd part
[ Tab from: http://www.guitartabs.cc/tabs/s/subhumans/religious_wars_tab.html ]
e|-3---2---0--3--2--0---3/2/0/3/2/0-(hammer off rapidly (it's tough!)
B|--------------------------------------------------------------------
G|--------------------------------------------------------------------
D|--------------------------------------------------------------------
A|--------------------------------------------------------------------
E|--------------------------------------------------------------------

e|--3--2--0-----------------------------------------------------------
B|-----------3--2-1-0-(ring)----(bend these)--9---9---9---9--9--9-----
G|--------------------------------------------------------------------
D|--------------------------------------------------------------------
A|--------------------------------------------------------------------
E|--------------------------------------------------------------------

e|--------------------------------------------------------------------
B|--11---11---11--11---11---11---11---(do bended notes again and ring)
G|--------------------------------------------------------------------
D|--------------------------------------------------------------------
A|--------------------------------------------------------------------
E|--------------------------------------------------------------------

Bridge:
e|--------------------------------------------------------------------
B|--------------------------------------------------------------------
G|--------------------------------------------------------------------
D|---9--------------9-9-9-9---7----------7-7-7-7----------------------
A|---9-(palm mute)--9-9-9-9---7-(mute)---7-7-7-7----------------------
E|---7--------------7-7-7-7---5----------5-5-5-5----------------------
awesome song live
Comments