Subhumans - Religious Wars Chords & Tabs

 

Religious Wars Chords & Tabs

Subhumans Chords & Tabs

Version: 1 Type: Bass Tab

Religious Wars Bass Tab

RELIGIOUS WARS by Subhumans. Album : Ep/Lp (1981)
In the name of God they left you to die.
:
# intro #  0.09 *=playX16 "=playX3
G----*-----"----"---"---"-----------|
D----9----12---11---9---7---6--7----|
A-----------------------------------|
E-----------------------------------|
:
# verse #  *=playX16  #=playX24
G--------------------------------------------------------|
D--------------------------------------------------------|
A---*-----------------*----------------------#-----------|
E---7---5-3-5-3-5-6---7---10--9--7---5-3-5---7---7-7-7---|
:
# chorus1 #  *=playX16
G-----------------------|
D---*----*----*----*----|
A---5----7----5----7----|
E-----------------------|
:
Then play verseX2, 
:
# chorus2 #  *=playX16 #=playX8
G---------------------------------------|
D---*----#----9--7------------*----*----|
A---5----7----------9----7----5----7----|
E---------------------------------------|
:
Then play verseX2, chorus2
:
# bridge #  %=pause  *=playX24 ( )=mute
G------------------------------------------------------------------|
D------------------------------------------------------------------|
A----------------------*--------------*--------------*-------------|
E---%%%%%%--7-7-7-7---(5)--5-5-5-5---(7)--7-7-7-7---(5)--5-5-5-5---|
:
Then play chorus
:
Religious wars ain't no reason why, they left you to die.
jackhynes :AT: gmail :DOT: com 18.05.03 revised 14.06.04
http://www.geocities.com/jackstabs
[ Tab from: http://www.guitartabs.cc/tabs/s/subhumans/religious_wars_btab.html ]